ISO-10303-21;
HEADER;
FILE_DESCRIPTION (( 'STEP AP203' ),
    '1' );
FILE_NAME ('42093.step',
    '2021-09-03T07:22:20',
    ( '' ),
    ( '' ),
    'SwSTEP 2.0',
    'SolidWorks 2019',
    '' );
FILE_SCHEMA (( 'CONFIG_CONTROL_DESIGN' ));
ENDSEC;

DATA;
#1 = EDGE_CURVE ( 'NONE', #90, #310, #253, .T. ) ;
#2 = VERTEX_POINT ( 'NONE', #326 ) ;
#3 = CARTESIAN_POINT ( 'NONE',  ( 4.195787277160954273E-15, -1.471684067651609788E-16, 1.201721238055130314 ) ) ;
#4 = AXIS2_PLACEMENT_3D ( 'NONE', #32, #230, #151 ) ;
#5 = VERTEX_POINT ( 'NONE', #202 ) ;
#6 = PERSON ( 'UNSPECIFIED', 'UNSPECIFIED', 'UNSPECIFIED', ('UNSPECIFIED'), ('UNSPECIFIED'), ('UNSPECIFIED') ) ;
#7 = ORIENTED_EDGE ( 'NONE', *, *, #38, .F. ) ;
#8 = DIRECTION ( 'NONE',  ( -3.491481338843133355E-15, 1.224646799147353207E-16, -1.000000000000000000 ) ) ;
#9 = APPROVAL_DATE_TIME ( #274, #50 ) ;
#10 = AXIS2_PLACEMENT_3D ( 'NONE', #31, #8, #287 ) ;
#11 = PLANE ( 'NONE',  #44 ) ;
#12 = PRODUCT_DEFINITION ( 'UNKNOWN', '', #215, #205 ) ;
#13 = ORIENTED_EDGE ( 'NONE', *, *, #276, .F. ) ;
#14 = CARTESIAN_POINT ( 'NONE',  ( 4.195787277160953484E-15, -1.999999999999994005, 1.201721238055130092 ) ) ;
#15 = FACE_OUTER_BOUND ( 'NONE', #312, .T. ) ;
#16 = CIRCLE ( 'NONE', #4, 1.500000000000000666 ) ;
#17 = FACE_OUTER_BOUND ( 'NONE', #185, .T. ) ;
#18 = CARTESIAN_POINT ( 'NONE',  ( 0.0000000000000000000, 0.0000000000000000000, 0.0000000000000000000 ) ) ;
#19 = AXIS2_PLACEMENT_3D ( 'NONE', #219, #105, #190 ) ;
#20 = COORDINATED_UNIVERSAL_TIME_OFFSET ( 1, 0, .AHEAD. ) ;
#21 = EDGE_CURVE ( 'NONE', #283, #244, #120, .T. ) ;
#22 = CARTESIAN_POINT ( 'NONE',  ( 1.902857329669507363E-13, -6.674325055353074252E-15, 54.49999999999999289 ) ) ;
#23 = APPROVAL_ROLE ( '' ) ;
#24 = CONICAL_SURFACE ( 'NONE', #48, 1.500000000000000666, 0.7853981633974407295 ) ;
#25 = VECTOR ( 'NONE', #107, 1000.000000000000000 ) ;
#26 = CC_DESIGN_PERSON_AND_ORGANIZATION_ASSIGNMENT ( #334, #125, ( #12 ) ) ;
#27 = CARTESIAN_POINT ( 'NONE',  ( 5.935518276033326704E-14, -2.081899558550500280E-15, 17.00000000000000000 ) ) ;
#28 = VERTEX_POINT ( 'NONE', #14 ) ;
#29 = ORIENTED_EDGE ( 'NONE', *, *, #213, .T. ) ;
#30 = PERSON_AND_ORGANIZATION ( #6, #269 ) ;
#31 = CARTESIAN_POINT ( 'NONE',  ( 1.920314736363723472E-13, -6.735557395310442615E-15, 55.00000000000000000 ) ) ;
#32 = CARTESIAN_POINT ( 'NONE',  ( 1.920314736363723472E-13, -6.735557395310442615E-15, 55.00000000000000000 ) ) ;
#33 = CARTESIAN_POINT ( 'NONE',  ( 1.920314736363723472E-13, 1.499999999999994005, 55.00000000000000000 ) ) ;
#34 = AXIS2_PLACEMENT_3D ( 'NONE', #180, #174, #47 ) ;
#35 = LOCAL_TIME ( 9, 22, 20.00000000000000000, #20 ) ;
#36 = DIRECTION ( 'NONE',  ( 3.491481338843133355E-15, -1.224646799147353207E-16, 1.000000000000000000 ) ) ;
#37 = EDGE_LOOP ( 'NONE', ( #173, #179, #139 ) ) ;
#38 = EDGE_CURVE ( 'NONE', #237, #310, #86, .T. ) ;
#39 = DIRECTION ( 'NONE',  ( 0.0000000000000000000, 1.000000000000000000, 0.0000000000000000000 ) ) ;
#40 = DIRECTION ( 'NONE',  ( 4.275831445896958607E-31, 1.000000000000000000, 1.224646799147353207E-16 ) ) ;
#41 = DIRECTION ( 'NONE',  ( -3.851859888774483092E-31, -1.000000000000000000, -1.084202172485507639E-16 ) ) ;
#42 = APPLICATION_PROTOCOL_DEFINITION ( 'international standard', 'config_control_design', 1994, #97 ) ;
#43 = CYLINDRICAL_SURFACE ( 'NONE', #229, 1.999999999999998224 ) ;
#44 = AXIS2_PLACEMENT_3D ( 'NONE', #117, #92, #40 ) ;
#45 = CYLINDRICAL_SURFACE ( 'NONE', #214, 1.999999999999994893 ) ;
#46 = CYLINDRICAL_SURFACE ( 'NONE', #177, 1.999999999999994893 ) ;
#47 = DIRECTION ( 'NONE',  ( 0.0000000000000000000, 1.000000000000000000, 0.0000000000000000000 ) ) ;
#48 = AXIS2_PLACEMENT_3D ( 'NONE', #210, #332, #75 ) ;
#49 = CIRCLE ( 'NONE', #299, 1.999999999999996225 ) ;
#50 = APPROVAL ( #272, 'UNSPECIFIED' ) ;
#51 = MANIFOLD_SOLID_BREP ( 'Corps-Déplacer/Copier1[2]', #157 ) ;
#52 = MANIFOLD_SOLID_BREP ( 'Corps-Déplacer/Copier1[1]', #87 ) ;
#53 = DIRECTION ( 'NONE',  ( 0.0000000000000000000, 1.000000000000000000, 0.0000000000000000000 ) ) ;
#54 = COORDINATED_UNIVERSAL_TIME_OFFSET ( 1, 0, .AHEAD. ) ;
#55 = AXIS2_PLACEMENT_3D ( 'NONE', #226, #249, #147 ) ;
#56 = VECTOR ( 'NONE', #284, 999.9999999999998863 ) ;
#57 = CARTESIAN_POINT ( 'NONE',  ( 1.920314736363723472E-13, -6.735557395310442615E-15, 55.00000000000000000 ) ) ;
#58 = LINE ( 'NONE', #254, #183 ) ;
#59 = DATE_AND_TIME ( #76, #140 ) ;
#60 = ORIENTED_EDGE ( 'NONE', *, *, #186, .T. ) ;
#61 = COORDINATED_UNIVERSAL_TIME_OFFSET ( 1, 0, .AHEAD. ) ;
#62 = PERSON_AND_ORGANIZATION_ROLE ( 'design_supplier' ) ;
#63 = AXIS2_PLACEMENT_3D ( 'NONE', #3, #163, #217 ) ;
#64 = FACE_OUTER_BOUND ( 'NONE', #211, .T. ) ;
#65 = EDGE_LOOP ( 'NONE', ( #101, #66, #60, #152 ) ) ;
#66 = ORIENTED_EDGE ( 'NONE', *, *, #305, .T. ) ;
#67 = LINE ( 'NONE', #124, #240 ) ;
#68 = AXIS2_PLACEMENT_3D ( 'NONE', #290, #81, #246 ) ;
#69 = CARTESIAN_POINT ( 'NONE',  ( 2.449293598294696061E-16, -1.999999999999998224, -2.449293598294712331E-16 ) ) ;
#70 = ORIENTED_EDGE ( 'NONE', *, *, #123, .T. ) ;
#71 = DIRECTION ( 'NONE',  ( -3.491481338843133355E-15, 1.224646799147353207E-16, -1.000000000000000000 ) ) ;
#72 = DIRECTION ( 'NONE',  ( 4.275831445896958607E-31, 1.000000000000000000, 1.224646799147353207E-16 ) ) ;
#73 = ORIENTED_EDGE ( 'NONE', *, *, #321, .T. ) ;
#74 = EDGE_CURVE ( 'NONE', #2, #237, #111, .T. ) ;
#75 = DIRECTION ( 'NONE',  ( 0.0000000000000000000, 1.000000000000000000, 0.0000000000000000000 ) ) ;
#76 = CALENDAR_DATE ( 2021, 3, 9 ) ;
#77 = CARTESIAN_POINT ( 'NONE',  ( 1.902857329669507363E-13, -6.674325055353074252E-15, 54.49999999999999289 ) ) ;
#78 = VERTEX_POINT ( 'NONE', #33 ) ;
#79 = ORIENTED_EDGE ( 'NONE', *, *, #259, .F. ) ;
#80 = CC_DESIGN_APPROVAL ( #50, ( #215 ) ) ;
#81 = DIRECTION ( 'NONE',  ( -3.491481338843133355E-15, 1.224646799147353207E-16, -1.000000000000000000 ) ) ;
#82 = ORIENTED_EDGE ( 'NONE', *, *, #38, .T. ) ;
#83 = VERTEX_POINT ( 'NONE', #91 ) ;
#84 = APPROVAL ( #304, 'UNSPECIFIED' ) ;
#85 = LINE ( 'NONE', #69, #298 ) ;
#86 = LINE ( 'NONE', #119, #208 ) ;
#87 = CLOSED_SHELL ( 'NONE', ( #138, #167, #252, #178, #218, #200 ) ) ;
#88 = APPROVAL_STATUS ( 'not_yet_approved' ) ;
#89 = EDGE_CURVE ( 'NONE', #78, #203, #16, .T. ) ;
#90 = VERTEX_POINT ( 'NONE', #257 ) ;
#91 = CARTESIAN_POINT ( 'NONE',  ( 1.250653872234713394E-13, -2.000000000000007105, 54.49999999999999289 ) ) ;
#92 = DIRECTION ( 'NONE',  ( -3.491481338843133355E-15, 1.224646799147353207E-16, -1.000000000000000000 ) ) ;
#93 = APPROVAL_DATE_TIME ( #169, #133 ) ;
#94 = AXIS2_PLACEMENT_3D ( 'NONE', #22, #319, #197 ) ;
#95 = EDGE_LOOP ( 'NONE', ( #181, #318 ) ) ;
#96 = ORIENTED_EDGE ( 'NONE', *, *, #295, .T. ) ;
#97 = APPLICATION_CONTEXT ( 'configuration controlled 3d designs of mechanical parts and assemblies' ) ;
#98 = DIRECTION ( 'NONE',  ( -3.491481338843133355E-15, 1.224646799147353207E-16, -1.000000000000000000 ) ) ;
#99 = EDGE_CURVE ( 'NONE', #83, #283, #85, .T. ) ;
#100 = CALENDAR_DATE ( 2021, 3, 9 ) ;
#101 = ORIENTED_EDGE ( 'NONE', *, *, #213, .F. ) ;
#102 = DIRECTION ( 'NONE',  ( 0.0000000000000000000, 0.0000000000000000000, 1.000000000000000000 ) ) ;
#103 = CONICAL_SURFACE ( 'NONE', #264, 1.500000000000000666, 0.7853981633974407295 ) ;
#104 = PLANE ( 'NONE',  #285 ) ;
#105 = DIRECTION ( 'NONE',  ( 3.491481338843133355E-15, -1.224646799147353207E-16, 1.000000000000000000 ) ) ;
#106 = EDGE_LOOP ( 'NONE', ( #266, #187, #330, #164 ) ) ;
#107 = DIRECTION ( 'NONE',  ( -3.491481338843133355E-15, 1.224646799147353207E-16, -1.000000000000000000 ) ) ;
#108 = ORIENTED_EDGE ( 'NONE', *, *, #329, .F. ) ;
#109 = DIRECTION ( 'NONE',  ( 0.0000000000000000000, 1.000000000000000000, 0.0000000000000000000 ) ) ;
#110 = ORIENTED_EDGE ( 'NONE', *, *, #113, .T. ) ;
#111 = CIRCLE ( 'NONE', #55, 1.999999999999996225 ) ;
#112 = CC_DESIGN_APPROVAL ( #84, ( #12 ) ) ;
#113 = EDGE_CURVE ( 'NONE', #5, #244, #67, .T. ) ;
#114 = PERSON_AND_ORGANIZATION_ROLE ( 'classification_officer' ) ;
#115 = ADVANCED_FACE ( 'NONE', ( #175 ), #45, .T. ) ;
#116 = CARTESIAN_POINT ( 'NONE',  ( 5.935518276033326704E-14, -2.081899558550500280E-15, 17.00000000000000000 ) ) ;
#117 = CARTESIAN_POINT ( 'NONE',  ( 1.920314736363723472E-13, 1.124819836996383764E-32, 55.00000000000000000 ) ) ;
#118 = SHAPE_DEFINITION_REPRESENTATION ( #145, #288 ) ;
#119 = CARTESIAN_POINT ( 'NONE',  ( 8.551662891793896194E-31, 1.999999999999994893, 2.449293598294700005E-16 ) ) ;
#120 = CIRCLE ( 'NONE', #323, 1.999999999999996225 ) ;
#121 = SECURITY_CLASSIFICATION ( '', '', #143 ) ;
#122 = DIRECTION ( 'NONE',  ( -4.275831445896958607E-31, -1.000000000000000000, -1.224646799147353207E-16 ) ) ;
#123 = EDGE_CURVE ( 'NONE', #244, #283, #306, .T. ) ;
#124 = CARTESIAN_POINT ( 'NONE',  ( 8.551662891793908455E-31, 1.999999999999998224, 2.449293598294704442E-16 ) ) ;
#125 = PERSON_AND_ORGANIZATION_ROLE ( 'creator' ) ;
#126 = EDGE_LOOP ( 'NONE', ( #193, #73, #142 ) ) ;
#127 = EDGE_LOOP ( 'NONE', ( #79, #192, #82, #13 ) ) ;
#128 = DIRECTION ( 'NONE',  ( 3.491481338843133355E-15, -1.224646799147353207E-16, 1.000000000000000000 ) ) ;
#129 = ADVANCED_FACE ( 'NONE', ( #262 ), #176, .T. ) ;
#130 = EDGE_LOOP ( 'NONE', ( #221, #29, #108, #317 ) ) ;
#131 = FACE_OUTER_BOUND ( 'NONE', #130, .T. ) ;
#132 = ORIENTED_EDGE ( 'NONE', *, *, #99, .F. ) ;
#133 = APPROVAL ( #88, 'UNSPECIFIED' ) ;
#134 = CIRCLE ( 'NONE', #68, 1.999999999999994005 ) ;
#135 =( GEOMETRIC_REPRESENTATION_CONTEXT ( 3 ) GLOBAL_UNCERTAINTY_ASSIGNED_CONTEXT ( ( #267 ) ) GLOBAL_UNIT_ASSIGNED_CONTEXT ( ( #170, #171, #227 ) ) REPRESENTATION_CONTEXT ( 'NONE', 'WORKASPACE' ) );
#136 = DIRECTION ( 'NONE',  ( -3.491481338843133355E-15, 1.224646799147353207E-16, -1.000000000000000000 ) ) ;
#137 = CARTESIAN_POINT ( 'NONE',  ( 5.935518276033326704E-14, 1.999999999999994005, 17.00000000000000000 ) ) ;
#138 = ADVANCED_FACE ( 'NONE', ( #131 ), #24, .T. ) ;
#139 = ORIENTED_EDGE ( 'NONE', *, *, #277, .T. ) ;
#140 = LOCAL_TIME ( 9, 22, 20.00000000000000000, #243 ) ;
#141 = DIRECTION ( 'NONE',  ( 0.0000000000000000000, 1.000000000000000000, 0.0000000000000000000 ) ) ;
#142 = ORIENTED_EDGE ( 'NONE', *, *, #276, .T. ) ;
#143 = SECURITY_CLASSIFICATION_LEVEL ( 'unclassified' ) ;
#144 = LINE ( 'NONE', #335, #222 ) ;
#145 = PRODUCT_DEFINITION_SHAPE ( 'NONE', 'NONE',  #12 ) ;
#146 = EDGE_CURVE ( 'NONE', #83, #5, #201, .T. ) ;
#147 = DIRECTION ( 'NONE',  ( 0.0000000000000000000, 1.000000000000000000, 0.0000000000000000000 ) ) ;
#148 = AXIS2_PLACEMENT_3D ( 'NONE', #154, #36, #255 ) ;
#149 = LOCAL_TIME ( 9, 22, 20.00000000000000000, #61 ) ;
#150 = PERSON_AND_ORGANIZATION ( #6, #269 ) ;
#151 = DIRECTION ( 'NONE',  ( 0.0000000000000000000, 1.000000000000000000, 0.0000000000000000000 ) ) ;
#152 = ORIENTED_EDGE ( 'NONE', *, *, #146, .F. ) ;
#153 = ADVANCED_FACE ( 'NONE', ( #168 ), #104, .T. ) ;
#154 = CARTESIAN_POINT ( 'NONE',  ( 4.195787277160954273E-15, -1.471684067651609788E-16, 1.201721238055130314 ) ) ;
#155 = PERSON_AND_ORGANIZATION ( #6, #269 ) ;
#156 = DIRECTION ( 'NONE',  ( -3.491481338843133355E-15, 1.224646799147353207E-16, -1.000000000000000000 ) ) ;
#157 = CLOSED_SHELL ( 'NONE', ( #206, #161, #129, #115, #153 ) ) ;
#158 = CC_DESIGN_APPROVAL ( #133, ( #121 ) ) ;
#159 = CALENDAR_DATE ( 2021, 3, 9 ) ;
#160 = FACE_OUTER_BOUND ( 'NONE', #199, .T. ) ;
#161 = ADVANCED_FACE ( 'NONE', ( #228 ), #165, .T. ) ;
#162 = FACE_OUTER_BOUND ( 'NONE', #65, .T. ) ;
#163 = DIRECTION ( 'NONE',  ( -3.491481338843133355E-15, 1.224646799147353207E-16, -1.000000000000000000 ) ) ;
#164 = ORIENTED_EDGE ( 'NONE', *, *, #113, .F. ) ;
#165 = CONICAL_SURFACE ( 'NONE', #148, 1.999999999999994005, 1.029744258676649649 ) ;
#166 = CARTESIAN_POINT ( 'NONE',  ( 5.935518276033326704E-14, 1.999999999999994005, 17.00000000000000000 ) ) ;
#167 = ADVANCED_FACE ( 'NONE', ( #204 ), #43, .T. ) ;
#168 = FACE_OUTER_BOUND ( 'NONE', #95, .T. ) ;
#169 = DATE_AND_TIME ( #194, #149 ) ;
#170 =( LENGTH_UNIT ( ) NAMED_UNIT ( * ) SI_UNIT ( .MILLI., .METRE. ) );
#171 =( NAMED_UNIT ( * ) PLANE_ANGLE_UNIT ( ) SI_UNIT ( $, .RADIAN. ) );
#172 = AXIS2_PLACEMENT_3D ( 'NONE', #77, #184, #53 ) ;
#173 = ORIENTED_EDGE ( 'NONE', *, *, #321, .F. ) ;
#174 = DIRECTION ( 'NONE',  ( -3.491481338843133355E-15, 1.224646799147353207E-16, -1.000000000000000000 ) ) ;
#175 = FACE_OUTER_BOUND ( 'NONE', #127, .T. ) ;
#176 = CONICAL_SURFACE ( 'NONE', #314, 1.999999999999994005, 1.029744258676649649 ) ;
#177 = AXIS2_PLACEMENT_3D ( 'NONE', #182, #98, #72 ) ;
#178 = ADVANCED_FACE ( 'NONE', ( #64 ), #322, .T. ) ;
#179 = ORIENTED_EDGE ( 'NONE', *, *, #1, .T. ) ;
#180 = CARTESIAN_POINT ( 'NONE',  ( 5.935518276033326704E-14, -2.081899558550500280E-15, 17.00000000000000000 ) ) ;
#181 = ORIENTED_EDGE ( 'NONE', *, *, #295, .F. ) ;
#182 = CARTESIAN_POINT ( 'NONE',  ( 0.0000000000000000000, 0.0000000000000000000, 0.0000000000000000000 ) ) ;
#183 = VECTOR ( 'NONE', #198, 1000.000000000000000 ) ;
#184 = DIRECTION ( 'NONE',  ( -3.491481338843133355E-15, 1.224646799147353207E-16, -1.000000000000000000 ) ) ;
#185 = EDGE_LOOP ( 'NONE', ( #302, #286 ) ) ;
#186 = EDGE_CURVE ( 'NONE', #78, #5, #58, .T. ) ;
#187 = ORIENTED_EDGE ( 'NONE', *, *, #99, .T. ) ;
#188 = CC_DESIGN_SECURITY_CLASSIFICATION ( #121, ( #215 ) ) ;
#189 = CARTESIAN_POINT ( 'NONE',  ( 1.250653872234714657E-13, -1.999999999999998224, 17.00000000000000000 ) ) ;
#190 = DIRECTION ( 'NONE',  ( -4.275831445896958607E-31, -1.000000000000000000, -1.224646799147353207E-16 ) ) ;
#191 = CARTESIAN_POINT ( 'NONE',  ( 0.0000000000000000000, 0.0000000000000000000, 0.0000000000000000000 ) ) ;
#192 = ORIENTED_EDGE ( 'NONE', *, *, #74, .T. ) ;
#193 = ORIENTED_EDGE ( 'NONE', *, *, #1, .F. ) ;
#194 = CALENDAR_DATE ( 2021, 3, 9 ) ;
#195 = CARTESIAN_POINT ( 'NONE',  ( 4.440716636990424569E-15, 1.999999999999994005, 1.201721238055130536 ) ) ;
#196 = ORIENTED_EDGE ( 'NONE', *, *, #21, .F. ) ;
#197 = DIRECTION ( 'NONE',  ( 0.0000000000000000000, 1.000000000000000000, 0.0000000000000000000 ) ) ;
#198 = DIRECTION ( 'NONE',  ( -2.468850131082284276E-15, 0.7071067811865422437, -0.7071067811865527908 ) ) ;
#199 = EDGE_LOOP ( 'NONE', ( #70, #233 ) ) ;
#200 = ADVANCED_FACE ( 'NONE', ( #17 ), #11, .F. ) ;
#201 = CIRCLE ( 'NONE', #94, 2.000000000000000444 ) ;
#202 = CARTESIAN_POINT ( 'NONE',  ( 1.902857329669507363E-13, 1.999999999999994005, 54.49999999999999289 ) ) ;
#203 = VERTEX_POINT ( 'NONE', #258 ) ;
#204 = FACE_OUTER_BOUND ( 'NONE', #106, .T. ) ;
#205 = DESIGN_CONTEXT ( 'detailed design', #238, 'design' ) ;
#206 = ADVANCED_FACE ( 'NONE', ( #15 ), #46, .T. ) ;
#207 = CARTESIAN_POINT ( 'NONE',  ( 0.0000000000000000000, 0.0000000000000000000, 0.0000000000000000000 ) ) ;
#208 = VECTOR ( 'NONE', #296, 1000.000000000000000 ) ;
#209 = APPROVAL_PERSON_ORGANIZATION ( #239, #50, #23 ) ;
#210 = CARTESIAN_POINT ( 'NONE',  ( 1.920314736363723472E-13, -6.735557395310442615E-15, 55.00000000000000000 ) ) ;
#211 = EDGE_LOOP ( 'NONE', ( #132, #265, #110, #196 ) ) ;
#212 = DATE_AND_TIME ( #100, #35 ) ;
#213 = EDGE_CURVE ( 'NONE', #203, #83, #301, .T. ) ;
#214 = AXIS2_PLACEMENT_3D ( 'NONE', #231, #71, #281 ) ;
#215 = PRODUCT_DEFINITION_FORMATION_WITH_SPECIFIED_SOURCE ( 'ANY', '', #270, .NOT_KNOWN. ) ;
#216 = CARTESIAN_POINT ( 'NONE',  ( 5.935518276033326704E-14, 1.499759782661851313E-32, 17.00000000000000000 ) ) ;
#217 = DIRECTION ( 'NONE',  ( 3.851859888774483092E-31, 1.000000000000000000, 1.084202172485507639E-16 ) ) ;
#218 = ADVANCED_FACE ( 'NONE', ( #162 ), #103, .T. ) ;
#219 = CARTESIAN_POINT ( 'NONE',  ( 5.935518276033326704E-14, 1.499759782661851313E-32, 17.00000000000000000 ) ) ;
#220 = PRODUCT_RELATED_PRODUCT_CATEGORY ( 'detail', '', ( #270 ) ) ;
#221 = ORIENTED_EDGE ( 'NONE', *, *, #89, .T. ) ;
#222 = VECTOR ( 'NONE', #309, 1000.000000000000000 ) ;
#223 = PERSON_AND_ORGANIZATION ( #6, #269 ) ;
#224 = CARTESIAN_POINT ( 'NONE',  ( 4.440716636990424569E-15, 1.999999999999994005, 1.201721238055130536 ) ) ;
#225 = COORDINATED_UNIVERSAL_TIME_OFFSET ( 1, 0, .AHEAD. ) ;
#226 = CARTESIAN_POINT ( 'NONE',  ( 5.935518276033326704E-14, -2.081899558550500280E-15, 17.00000000000000000 ) ) ;
#227 =( NAMED_UNIT ( * ) SI_UNIT ( $, .STERADIAN. ) SOLID_ANGLE_UNIT ( ) );
#228 = FACE_OUTER_BOUND ( 'NONE', #37, .T. ) ;
#229 = AXIS2_PLACEMENT_3D ( 'NONE', #207, #156, #280 ) ;
#230 = DIRECTION ( 'NONE',  ( -3.491481338843133355E-15, 1.224646799147353207E-16, -1.000000000000000000 ) ) ;
#231 = CARTESIAN_POINT ( 'NONE',  ( 0.0000000000000000000, 0.0000000000000000000, 0.0000000000000000000 ) ) ;
#232 = MECHANICAL_CONTEXT ( 'NONE', #97, 'mechanical' ) ;
#233 = ORIENTED_EDGE ( 'NONE', *, *, #21, .T. ) ;
#234 = PERSON_AND_ORGANIZATION_ROLE ( 'design_owner' ) ;
#235 = CIRCLE ( 'NONE', #172, 2.000000000000000444 ) ;
#236 = DIRECTION ( 'NONE',  ( -3.491481338843133355E-15, 1.224646799147353207E-16, -1.000000000000000000 ) ) ;
#237 = VERTEX_POINT ( 'NONE', #137 ) ;
#238 = APPLICATION_CONTEXT ( 'configuration controlled 3d designs of mechanical parts and assemblies' ) ;
#239 = PERSON_AND_ORGANIZATION ( #6, #269 ) ;
#240 = VECTOR ( 'NONE', #268, 1000.000000000000000 ) ;
#241 = VECTOR ( 'NONE', #278, 999.9999999999998863 ) ;
#242 = DIRECTION ( 'NONE',  ( -3.491481338843133355E-15, 1.224646799147353207E-16, -1.000000000000000000 ) ) ;
#243 = COORDINATED_UNIVERSAL_TIME_OFFSET ( 1, 0, .AHEAD. ) ;
#244 = VERTEX_POINT ( 'NONE', #166 ) ;
#245 = AXIS2_PLACEMENT_3D ( 'NONE', #18, #102, #282 ) ;
#246 = DIRECTION ( 'NONE',  ( 3.851859888774483092E-31, 1.000000000000000000, 1.084202172485507639E-16 ) ) ;
#247 = CC_DESIGN_PERSON_AND_ORGANIZATION_ASSIGNMENT ( #223, #114, ( #121 ) ) ;
#248 = DATE_TIME_ROLE ( 'creation_date' ) ;
#249 = DIRECTION ( 'NONE',  ( -3.491481338843133355E-15, 1.224646799147353207E-16, -1.000000000000000000 ) ) ;
#250 = CALENDAR_DATE ( 2021, 3, 9 ) ;
#251 = CIRCLE ( 'NONE', #10, 1.500000000000000666 ) ;
#252 = ADVANCED_FACE ( 'NONE', ( #160 ), #337, .F. ) ;
#253 = LINE ( 'NONE', #195, #241 ) ;
#254 = CARTESIAN_POINT ( 'NONE',  ( 1.920314736363723472E-13, 1.499999999999994005, 55.00000000000000000 ) ) ;
#255 = DIRECTION ( 'NONE',  ( -3.851859888774483092E-31, -1.000000000000000000, -1.084202172485507639E-16 ) ) ;
#256 = DATE_TIME_ROLE ( 'classification_date' ) ;
#257 = CARTESIAN_POINT ( 'NONE',  ( 0.0000000000000000000, 0.0000000000000000000, 0.0000000000000000000 ) ) ;
#258 = CARTESIAN_POINT ( 'NONE',  ( 1.913729164915123472E-13, -1.500000000000007327, 55.00000000000000000 ) ) ;
#259 = EDGE_CURVE ( 'NONE', #2, #28, #275, .T. ) ;
#260 = ORIENTED_EDGE ( 'NONE', *, *, #277, .F. ) ;
#261 = AXIS2_PLACEMENT_3D ( 'NONE', #191, #273, #291 ) ;
#262 = FACE_OUTER_BOUND ( 'NONE', #126, .T. ) ;
#263 = APPROVAL_ROLE ( '' ) ;
#264 = AXIS2_PLACEMENT_3D ( 'NONE', #57, #242, #109 ) ;
#265 = ORIENTED_EDGE ( 'NONE', *, *, #146, .T. ) ;
#266 = ORIENTED_EDGE ( 'NONE', *, *, #329, .T. ) ;
#267 = UNCERTAINTY_MEASURE_WITH_UNIT (LENGTH_MEASURE( 1.000000000000000082E-05 ), #170, 'distance_accuracy_value', 'NONE');
#268 = DIRECTION ( 'NONE',  ( -3.491481338843133355E-15, 1.224646799147353207E-16, -1.000000000000000000 ) ) ;
#269 = ORGANIZATION ( 'UNSPECIFIED', 'UNSPECIFIED', '' ) ;
#270 = PRODUCT ( '42093', '42093', '', ( #232 ) ) ;
#271 = ORIENTED_EDGE ( 'NONE', *, *, #259, .T. ) ;
#272 = APPROVAL_STATUS ( 'not_yet_approved' ) ;
#273 = DIRECTION ( 'NONE',  ( -3.491481338843133355E-15, 1.224646799147353207E-16, -1.000000000000000000 ) ) ;
#274 = DATE_AND_TIME ( #159, #336 ) ;
#275 = LINE ( 'NONE', #313, #25 ) ;
#276 = EDGE_CURVE ( 'NONE', #28, #310, #134, .T. ) ;
#277 = EDGE_CURVE ( 'NONE', #310, #28, #315, .T. ) ;
#278 = DIRECTION ( 'NONE',  ( 1.903218546456022717E-15, 0.8571673007021097801, 0.5150380749100585964 ) ) ;
#279 = LOCAL_TIME ( 9, 22, 20.00000000000000000, #225 ) ;
#280 = DIRECTION ( 'NONE',  ( 4.275831445896957731E-31, 1.000000000000000000, 1.224646799147353207E-16 ) ) ;
#281 = DIRECTION ( 'NONE',  ( 4.275831445896958607E-31, 1.000000000000000000, 1.224646799147353207E-16 ) ) ;
#282 = DIRECTION ( 'NONE',  ( 1.000000000000000000, 0.0000000000000000000, 0.0000000000000000000 ) ) ;
#283 = VERTEX_POINT ( 'NONE', #189 ) ;
#284 = DIRECTION ( 'NONE',  ( -2.382254525458736008E-15, -0.7071067811865420216, -0.7071067811865531239 ) ) ;
#285 = AXIS2_PLACEMENT_3D ( 'NONE', #216, #308, #122 ) ;
#286 = ORIENTED_EDGE ( 'NONE', *, *, #305, .F. ) ;
#287 = DIRECTION ( 'NONE',  ( 0.0000000000000000000, 1.000000000000000000, 0.0000000000000000000 ) ) ;
#288 = ADVANCED_BREP_SHAPE_REPRESENTATION ( '42093', ( #52, #51, #245 ), #135 ) ;
#289 = CC_DESIGN_PERSON_AND_ORGANIZATION_ASSIGNMENT ( #155, #234, ( #270 ) ) ;
#290 = CARTESIAN_POINT ( 'NONE',  ( 4.195787277160954273E-15, -1.471684067651609788E-16, 1.201721238055130314 ) ) ;
#291 = DIRECTION ( 'NONE',  ( 4.275831445896957731E-31, 1.000000000000000000, 1.224646799147353207E-16 ) ) ;
#292 = CC_DESIGN_DATE_AND_TIME_ASSIGNMENT ( #297, #256, ( #121 ) ) ;
#293 = PERSON_AND_ORGANIZATION_ROLE ( 'creator' ) ;
#294 = APPROVAL_PERSON_ORGANIZATION ( #150, #133, #324 ) ;
#295 = EDGE_CURVE ( 'NONE', #237, #2, #49, .T. ) ;
#296 = DIRECTION ( 'NONE',  ( -3.491481338843133355E-15, 1.224646799147353207E-16, -1.000000000000000000 ) ) ;
#297 = DATE_AND_TIME ( #250, #279 ) ;
#298 = VECTOR ( 'NONE', #236, 1000.000000000000000 ) ;
#299 = AXIS2_PLACEMENT_3D ( 'NONE', #27, #136, #141 ) ;
#300 = CC_DESIGN_PERSON_AND_ORGANIZATION_ASSIGNMENT ( #320, #62, ( #215 ) ) ;
#301 = LINE ( 'NONE', #311, #56 ) ;
#302 = ORIENTED_EDGE ( 'NONE', *, *, #89, .F. ) ;
#303 = APPROVAL_DATE_TIME ( #212, #84 ) ;
#304 = APPROVAL_STATUS ( 'not_yet_approved' ) ;
#305 = EDGE_CURVE ( 'NONE', #203, #78, #251, .T. ) ;
#306 = CIRCLE ( 'NONE', #34, 1.999999999999996225 ) ;
#307 = APPROVAL_PERSON_ORGANIZATION ( #333, #84, #263 ) ;
#308 = DIRECTION ( 'NONE',  ( 3.491481338843133355E-15, -1.224646799147353207E-16, 1.000000000000000000 ) ) ;
#309 = DIRECTION ( 'NONE',  ( 1.798245827342160317E-15, -0.8571673007021098911, 0.5150380749100582634 ) ) ;
#310 = VERTEX_POINT ( 'NONE', #224 ) ;
#311 = CARTESIAN_POINT ( 'NONE',  ( 1.922151706562444373E-13, -1.500000000000007327, 55.00000000000000000 ) ) ;
#312 = EDGE_LOOP ( 'NONE', ( #96, #271, #260, #7 ) ) ;
#313 = CARTESIAN_POINT ( 'NONE',  ( 2.449293598294691623E-16, -1.999999999999994893, -2.449293598294708880E-16 ) ) ;
#314 = AXIS2_PLACEMENT_3D ( 'NONE', #331, #128, #41 ) ;
#315 = CIRCLE ( 'NONE', #63, 1.999999999999994005 ) ;
#316 = CC_DESIGN_DATE_AND_TIME_ASSIGNMENT ( #59, #248, ( #12 ) ) ;
#317 = ORIENTED_EDGE ( 'NONE', *, *, #186, .F. ) ;
#318 = ORIENTED_EDGE ( 'NONE', *, *, #74, .F. ) ;
#319 = DIRECTION ( 'NONE',  ( -3.491481338843133355E-15, 1.224646799147353207E-16, -1.000000000000000000 ) ) ;
#320 = PERSON_AND_ORGANIZATION ( #6, #269 ) ;
#321 = EDGE_CURVE ( 'NONE', #90, #28, #144, .T. ) ;
#322 = CYLINDRICAL_SURFACE ( 'NONE', #261, 1.999999999999998224 ) ;
#323 = AXIS2_PLACEMENT_3D ( 'NONE', #116, #325, #39 ) ;
#324 = APPROVAL_ROLE ( '' ) ;
#325 = DIRECTION ( 'NONE',  ( -3.491481338843133355E-15, 1.224646799147353207E-16, -1.000000000000000000 ) ) ;
#326 = CARTESIAN_POINT ( 'NONE',  ( 3.202041437857653835E-14, -1.999999999999998224, 17.00000000000000000 ) ) ;
#327 = CC_DESIGN_PERSON_AND_ORGANIZATION_ASSIGNMENT ( #30, #293, ( #215 ) ) ;
#328 = APPLICATION_PROTOCOL_DEFINITION ( 'international standard', 'config_control_design', 1994, #238 ) ;
#329 = EDGE_CURVE ( 'NONE', #5, #83, #235, .T. ) ;
#330 = ORIENTED_EDGE ( 'NONE', *, *, #123, .F. ) ;
#331 = CARTESIAN_POINT ( 'NONE',  ( 4.195787277160954273E-15, -1.471684067651609788E-16, 1.201721238055130314 ) ) ;
#332 = DIRECTION ( 'NONE',  ( -3.491481338843133355E-15, 1.224646799147353207E-16, -1.000000000000000000 ) ) ;
#333 = PERSON_AND_ORGANIZATION ( #6, #269 ) ;
#334 = PERSON_AND_ORGANIZATION ( #6, #269 ) ;
#335 = CARTESIAN_POINT ( 'NONE',  ( 4.195787277160953484E-15, -1.999999999999994005, 1.201721238055130092 ) ) ;
#336 = LOCAL_TIME ( 9, 22, 20.00000000000000000, #54 ) ;
#337 = PLANE ( 'NONE',  #19 ) ;
ENDSEC;
END-ISO-10303-21;
