ISO-10303-21;
HEADER;
FILE_DESCRIPTION (( 'STEP AP203' ),
    '1' );
FILE_NAME ('420563.step',
    '2023-09-28T11:59:04',
    ( '' ),
    ( '' ),
    'SwSTEP 2.0',
    'SolidWorks 2022',
    '' );
FILE_SCHEMA (( 'CONFIG_CONTROL_DESIGN' ));
ENDSEC;

DATA;
#1 = PLANE ( 'NONE',  #139 ) ;
#2 = DIRECTION ( 'NONE',  ( -2.101794915386860973E-30, 1.000000000000000000, -6.019779891142907784E-16 ) ) ;
#3 = DIRECTION ( 'NONE',  ( -3.491481338843133355E-15, -6.019779891142907784E-16, -1.000000000000000000 ) ) ;
#4 = LOCAL_TIME ( 13, 59, 4.000000000000000000, #14 ) ;
#5 = FACE_OUTER_BOUND ( 'NONE', #181, .T. ) ;
#6 = DIRECTION ( 'NONE',  ( 0.000000000000000000, 1.000000000000000000, 0.000000000000000000 ) ) ;
#7 = ORGANIZATION ( 'UNSPECIFIED', 'UNSPECIFIED', '' ) ;
#8 = APPROVAL_PERSON_ORGANIZATION ( #51, #60, #33 ) ;
#9 = EDGE_CURVE ( 'NONE', #116, #116, #74, .T. ) ;
#10 = CARTESIAN_POINT ( 'NONE',  ( 0.000000000000000000, 0.000000000000000000, 0.000000000000000000 ) ) ;
#11 = PERSON_AND_ORGANIZATION_ROLE ( 'design_owner' ) ;
#12 = FACE_OUTER_BOUND ( 'NONE', #163, .T. ) ;
#13 = APPROVAL ( #224, 'UNSPECIFIED' ) ;
#14 = COORDINATED_UNIVERSAL_TIME_OFFSET ( 1, 0, .AHEAD. ) ;
#15 = AXIS2_PLACEMENT_3D ( 'NONE', #71, #93, #127 ) ;
#16 = ORIENTED_EDGE ( 'NONE', *, *, #44, .F. ) ;
#17 = DATE_AND_TIME ( #54, #42 ) ;
#18 = ORIENTED_EDGE ( 'NONE', *, *, #58, .F. ) ;
#19 = PLANE ( 'NONE',  #15 ) ;
#20 = PERSON_AND_ORGANIZATION ( #230, #7 ) ;
#21 = CARTESIAN_POINT ( 'NONE',  ( 7.329268197145786943E-14, -2.880025731351272149E-15, 20.99185842870426200 ) ) ;
#22 = CARTESIAN_POINT ( 'NONE',  ( -5.796750376636957836E-30, 5.515999999999994685, -1.660255293977212394E-15 ) ) ;
#23 = DIRECTION ( 'NONE',  ( -3.491481338843133355E-15, -6.019779891142907784E-16, -1.000000000000000000 ) ) ;
#24 = ADVANCED_FACE ( 'NONE', ( #178, #12 ), #232, .T. ) ;
#25 = CARTESIAN_POINT ( 'NONE',  ( 4.643670180661366731E-13, -1.824723730729556232E-14, 133.0000000000000000 ) ) ;
#26 = CARTESIAN_POINT ( 'NONE',  ( 1.368455531567204171E-45, 5.515999999999994685, 0.000000000000000000 ) ) ;
#27 = VERTEX_POINT ( 'NONE', #26 ) ;
#28 = DIRECTION ( 'NONE',  ( -2.101794915386860973E-30, 1.000000000000000000, -6.019779891142907784E-16 ) ) ;
#29 = CONICAL_SURFACE ( 'NONE', #65, 5.000000000000000888, 0.7853981633974473908 ) ;
#30 = PRODUCT_DEFINITION ( 'UNKNOWN', '', #142, #191 ) ;
#31 = VERTEX_POINT ( 'NONE', #138 ) ;
#32 = APPROVAL_PERSON_ORGANIZATION ( #68, #154, #219 ) ;
#33 = APPROVAL_ROLE ( '' ) ;
#34 = CARTESIAN_POINT ( 'NONE',  ( 4.608755367272936534E-13, -1.811004003430837835E-14, 132.0000000000000000 ) ) ;
#35 = DATE_AND_TIME ( #144, #101 ) ;
#36 = EDGE_LOOP ( 'NONE', ( #147 ) ) ;
#37 = SECURITY_CLASSIFICATION_LEVEL ( 'unclassified' ) ;
#38 = PLANE ( 'NONE',  #113 ) ;
#39 = APPROVAL_ROLE ( '' ) ;
#40 = CC_DESIGN_DATE_AND_TIME_ASSIGNMENT ( #150, #89, ( #67 ) ) ;
#41 = DIRECTION ( 'NONE',  ( 0.000000000000000000, 1.000000000000000000, 0.000000000000000000 ) ) ;
#42 = LOCAL_TIME ( 13, 59, 4.000000000000000000, #168 ) ;
#43 = PRODUCT ( '420563', '420563', '', ( #141 ) ) ;
#44 = EDGE_CURVE ( 'NONE', #31, #31, #223, .T. ) ;
#45 = DIRECTION ( 'NONE',  ( 0.000000000000000000, 1.000000000000000000, 0.000000000000000000 ) ) ;
#46 = DIRECTION ( 'NONE',  ( 0.000000000000000000, 0.000000000000000000, 1.000000000000000000 ) ) ;
#47 = AXIS2_PLACEMENT_3D ( 'NONE', #25, #212, #45 ) ;
#48 = CARTESIAN_POINT ( 'NONE',  ( 1.159350075327391567E-29, 1.998874286569516097E-30, 3.320510587954424789E-15 ) ) ;
#49 = CC_DESIGN_PERSON_AND_ORGANIZATION_ASSIGNMENT ( #123, #187, ( #142 ) ) ;
#50 = EDGE_LOOP ( 'NONE', ( #103 ) ) ;
#51 = PERSON_AND_ORGANIZATION ( #230, #7 ) ;
#52 = AXIS2_PLACEMENT_3D ( 'NONE', #22, #167, #28 ) ;
#53 = EDGE_LOOP ( 'NONE', ( #107 ) ) ;
#54 = CALENDAR_DATE ( 2023, 28, 9 ) ;
#55 = EDGE_LOOP ( 'NONE', ( #66 ) ) ;
#56 = AXIS2_PLACEMENT_3D ( 'NONE', #10, #46, #216 ) ;
#57 = AXIS2_PLACEMENT_3D ( 'NONE', #21, #155, #41 ) ;
#58 = EDGE_CURVE ( 'NONE', #161, #161, #165, .T. ) ;
#59 = DIRECTION ( 'NONE',  ( 4.790217183749224165E-31, 1.000000000000000000, 1.371972729871846822E-16 ) ) ;
#60 = APPROVAL ( #203, 'UNSPECIFIED' ) ;
#61 = FACE_OUTER_BOUND ( 'NONE', #218, .T. ) ;
#62 = DATE_AND_TIME ( #156, #206 ) ;
#63 =( NAMED_UNIT ( * ) SI_UNIT ( $, .STERADIAN. ) SOLID_ANGLE_UNIT ( ) );
#64 = DIRECTION ( 'NONE',  ( 2.101794915386861324E-30, -1.000000000000000000, 6.019779891142907784E-16 ) ) ;
#65 = AXIS2_PLACEMENT_3D ( 'NONE', #98, #77, #102 ) ;
#66 = ORIENTED_EDGE ( 'NONE', *, *, #44, .T. ) ;
#67 = SECURITY_CLASSIFICATION ( '', '', #37 ) ;
#68 = PERSON_AND_ORGANIZATION ( #230, #7 ) ;
#69 = ORIENTED_EDGE ( 'NONE', *, *, #9, .F. ) ;
#70 = SHAPE_DEFINITION_REPRESENTATION ( #184, #140 ) ;
#71 = CARTESIAN_POINT ( 'NONE',  ( 4.643670180661366731E-13, -1.824723730729556232E-14, 133.0000000000000000 ) ) ;
#72 = CARTESIAN_POINT ( 'NONE',  ( 0.000000000000000000, 0.000000000000000000, 0.000000000000000000 ) ) ;
#73 = DIRECTION ( 'NONE',  ( -2.048861642965149302E-30, 1.000000000000000000, -5.767032832369717885E-16 ) ) ;
#74 = CIRCLE ( 'NONE', #126, 5.000000000000000888 ) ;
#75 = DIRECTION ( 'NONE',  ( -3.491481338843133355E-15, -6.019779891142907784E-16, -1.000000000000000000 ) ) ;
#76 = PERSON_AND_ORGANIZATION ( #230, #7 ) ;
#77 = DIRECTION ( 'NONE',  ( -3.491481338843133355E-15, 1.371972729871846822E-16, -1.000000000000000000 ) ) ;
#78 = APPLICATION_CONTEXT ( 'configuration controlled 3d designs of mechanical parts and assemblies' ) ;
#79 = VERTEX_POINT ( 'NONE', #99 ) ;
#80 = EDGE_CURVE ( 'NONE', #115, #115, #106, .T. ) ;
#81 = AXIS2_PLACEMENT_3D ( 'NONE', #72, #75, #92 ) ;
#82 = FACE_BOUND ( 'NONE', #50, .T. ) ;
#83 = ORIENTED_EDGE ( 'NONE', *, *, #100, .T. ) ;
#84 = APPROVAL_DATE_TIME ( #17, #154 ) ;
#85 = CALENDAR_DATE ( 2023, 28, 9 ) ;
#86 = CIRCLE ( 'NONE', #193, 5.515999999999994685 ) ;
#87 = ORIENTED_EDGE ( 'NONE', *, *, #229, .T. ) ;
#88 = ORIENTED_EDGE ( 'NONE', *, *, #229, .F. ) ;
#89 = DATE_TIME_ROLE ( 'classification_date' ) ;
#90 = FACE_OUTER_BOUND ( 'NONE', #53, .T. ) ;
#91 = PERSON_AND_ORGANIZATION_ROLE ( 'creator' ) ;
#92 = DIRECTION ( 'NONE',  ( -2.101794915386860973E-30, 1.000000000000000000, -6.019779891142907784E-16 ) ) ;
#93 = DIRECTION ( 'NONE',  ( 3.491481338843133355E-15, -1.371972729871846822E-16, 1.000000000000000000 ) ) ;
#94 = CARTESIAN_POINT ( 'NONE',  ( 6.714850012974193520E-14, 1.157729775910420132E-14, 19.23209480821423867 ) ) ;
#95 = DIRECTION ( 'NONE',  ( 2.101794915386860973E-30, -1.000000000000000000, 6.019779891142907784E-16 ) ) ;
#96 = CONICAL_SURFACE ( 'NONE', #242, 5.515999999999994685, 0.7853981633974492782 ) ;
#97 = ADVANCED_FACE ( 'NONE', ( #225, #61 ), #133, .T. ) ;
#98 = CARTESIAN_POINT ( 'NONE',  ( 4.608755367272936534E-13, -1.811004003430837835E-14, 132.0000000000000000 ) ) ;
#99 = CARTESIAN_POINT ( 'NONE',  ( 6.714850012974192258E-14, 6.015999999999997350, 19.23209480821423512 ) ) ;
#100 = EDGE_CURVE ( 'NONE', #121, #121, #157, .T. ) ;
#101 = LOCAL_TIME ( 13, 59, 4.000000000000000000, #237 ) ;
#102 = DIRECTION ( 'NONE',  ( 0.000000000000000000, 1.000000000000000000, 0.000000000000000000 ) ) ;
#103 = ORIENTED_EDGE ( 'NONE', *, *, #196, .F. ) ;
#104 = DIRECTION ( 'NONE',  ( 0.000000000000000000, 1.000000000000000000, 0.000000000000000000 ) ) ;
#105 = APPROVAL_DATE_TIME ( #35, #13 ) ;
#106 = CIRCLE ( 'NONE', #57, 4.999999999999985789 ) ;
#107 = ORIENTED_EDGE ( 'NONE', *, *, #196, .T. ) ;
#108 = FACE_OUTER_BOUND ( 'NONE', #119, .T. ) ;
#109 = PERSON_AND_ORGANIZATION ( #230, #7 ) ;
#110 = CARTESIAN_POINT ( 'NONE',  ( 6.714850012974192258E-14, 6.015999999999997350, 19.23209480821423512 ) ) ;
#111 = DIRECTION ( 'NONE',  ( -3.491481338843133355E-15, 1.371972729871846822E-16, -1.000000000000000000 ) ) ;
#112 = CC_DESIGN_DATE_AND_TIME_ASSIGNMENT ( #243, #148, ( #30 ) ) ;
#113 = AXIS2_PLACEMENT_3D ( 'NONE', #110, #111, #59 ) ;
#114 = CARTESIAN_POINT ( 'NONE',  ( 6.714850012974192258E-14, 6.015999999999997350, 19.23209480821423512 ) ) ;
#115 = VERTEX_POINT ( 'NONE', #213 ) ;
#116 = VERTEX_POINT ( 'NONE', #201 ) ;
#117 = APPROVAL_PERSON_ORGANIZATION ( #20, #13, #39 ) ;
#118 = UNCERTAINTY_MEASURE_WITH_UNIT (LENGTH_MEASURE( 1.000000000000000082E-05 ), #176, 'distance_accuracy_value', 'NONE');
#119 = EDGE_LOOP ( 'NONE', ( #162 ) ) ;
#120 = AXIS2_PLACEMENT_3D ( 'NONE', #94, #3, #73 ) ;
#121 = VERTEX_POINT ( 'NONE', #197 ) ;
#122 = ORIENTED_EDGE ( 'NONE', *, *, #80, .T. ) ;
#123 = PERSON_AND_ORGANIZATION ( #230, #7 ) ;
#124 = ADVANCED_FACE ( 'NONE', ( #210 ), #38, .T. ) ;
#125 = PERSON_AND_ORGANIZATION ( #230, #7 ) ;
#126 = AXIS2_PLACEMENT_3D ( 'NONE', #34, #200, #104 ) ;
#127 = DIRECTION ( 'NONE',  ( -4.790217183749224165E-31, -1.000000000000000000, -1.371972729871846822E-16 ) ) ;
#128 = APPROVAL_STATUS ( 'not_yet_approved' ) ;
#129 = DIRECTION ( 'NONE',  ( -3.491481338843133355E-15, 1.371972729871846822E-16, -1.000000000000000000 ) ) ;
#130 = FACE_OUTER_BOUND ( 'NONE', #241, .T. ) ;
#131 = AXIS2_PLACEMENT_3D ( 'NONE', #170, #132, #190 ) ;
#132 = DIRECTION ( 'NONE',  ( -3.491481338843133355E-15, 1.371972729871846822E-16, -1.000000000000000000 ) ) ;
#133 = CYLINDRICAL_SURFACE ( 'NONE', #153, 4.999999999999993783 ) ;
#134 = CC_DESIGN_PERSON_AND_ORGANIZATION_ASSIGNMENT ( #109, #209, ( #67 ) ) ;
#135 = APPROVAL_DATE_TIME ( #62, #60 ) ;
#136 = CC_DESIGN_APPROVAL ( #60, ( #30 ) ) ;
#137 =( NAMED_UNIT ( * ) PLANE_ANGLE_UNIT ( ) SI_UNIT ( $, .RADIAN. ) );
#138 = CARTESIAN_POINT ( 'NONE',  ( 1.745740669421566283E-15, 6.015999999999996461, 0.5000000000000000000 ) ) ;
#139 = AXIS2_PLACEMENT_3D ( 'NONE', #183, #192, #95 ) ;
#140 = ADVANCED_BREP_SHAPE_REPRESENTATION ( '420563', ( #239, #166, #56 ), #194 ) ;
#141 = MECHANICAL_CONTEXT ( 'NONE', #78, 'mechanical' ) ;
#142 = PRODUCT_DEFINITION_FORMATION_WITH_SPECIFIED_SOURCE ( 'ANY', '', #43, .NOT_KNOWN. ) ;
#143 = APPLICATION_CONTEXT ( 'configuration controlled 3d designs of mechanical parts and assemblies' ) ;
#144 = CALENDAR_DATE ( 2023, 28, 9 ) ;
#145 = CC_DESIGN_PERSON_AND_ORGANIZATION_ASSIGNMENT ( #215, #91, ( #30 ) ) ;
#146 = ORIENTED_EDGE ( 'NONE', *, *, #100, .F. ) ;
#147 = ORIENTED_EDGE ( 'NONE', *, *, #9, .T. ) ;
#148 = DATE_TIME_ROLE ( 'creation_date' ) ;
#149 = ORIENTED_EDGE ( 'NONE', *, *, #80, .F. ) ;
#150 = DATE_AND_TIME ( #179, #160 ) ;
#151 = DIRECTION ( 'NONE',  ( -2.112888569307806551E-30, 1.000000000000000000, -5.947252608381261246E-16 ) ) ;
#152 = PLANE ( 'NONE',  #52 ) ;
#153 = AXIS2_PLACEMENT_3D ( 'NONE', #171, #129, #208 ) ;
#154 = APPROVAL ( #128, 'UNSPECIFIED' ) ;
#155 = DIRECTION ( 'NONE',  ( -3.491481338843133355E-15, 1.371972729871846822E-16, -1.000000000000000000 ) ) ;
#156 = CALENDAR_DATE ( 2023, 28, 9 ) ;
#157 = CIRCLE ( 'NONE', #47, 4.000000000000001776 ) ;
#158 = DIRECTION ( 'NONE',  ( -3.491481338843133355E-15, 1.371972729871846822E-16, -1.000000000000000000 ) ) ;
#159 = CC_DESIGN_PERSON_AND_ORGANIZATION_ASSIGNMENT ( #76, #11, ( #43 ) ) ;
#160 = LOCAL_TIME ( 13, 59, 4.000000000000000000, #205 ) ;
#161 = VERTEX_POINT ( 'NONE', #114 ) ;
#162 = ORIENTED_EDGE ( 'NONE', *, *, #58, .T. ) ;
#163 = EDGE_LOOP ( 'NONE', ( #88 ) ) ;
#164 = CLOSED_SHELL ( 'NONE', ( #173, #182, #234, #207 ) ) ;
#165 = CIRCLE ( 'NONE', #120, 6.015999999999985803 ) ;
#166 = MANIFOLD_SOLID_BREP ( 'Corps-Déplacer/Copier1[2]', #164 ) ;
#167 = DIRECTION ( 'NONE',  ( -3.491481338843133355E-15, -6.019779891142907784E-16, -1.000000000000000000 ) ) ;
#168 = COORDINATED_UNIVERSAL_TIME_OFFSET ( 1, 0, .AHEAD. ) ;
#169 = FACE_OUTER_BOUND ( 'NONE', #221, .T. ) ;
#170 = CARTESIAN_POINT ( 'NONE',  ( 6.714850012974192258E-14, -2.638590961517985685E-15, 19.23209480821423512 ) ) ;
#171 = CARTESIAN_POINT ( 'NONE',  ( 0.000000000000000000, 0.000000000000000000, 0.000000000000000000 ) ) ;
#172 = CC_DESIGN_APPROVAL ( #154, ( #142 ) ) ;
#173 = ADVANCED_FACE ( 'NONE', ( #130 ), #1, .T. ) ;
#174 = CIRCLE ( 'NONE', #186, 6.016000000000000014 ) ;
#175 = CC_DESIGN_SECURITY_CLASSIFICATION ( #67, ( #142 ) ) ;
#176 =( LENGTH_UNIT ( ) NAMED_UNIT ( * ) SI_UNIT ( .MILLI., .METRE. ) );
#177 = FACE_OUTER_BOUND ( 'NONE', #220, .T. ) ;
#178 = FACE_BOUND ( 'NONE', #204, .T. ) ;
#179 = CALENDAR_DATE ( 2023, 28, 9 ) ;
#180 = EDGE_LOOP ( 'NONE', ( #83 ) ) ;
#181 = EDGE_LOOP ( 'NONE', ( #16 ) ) ;
#182 = ADVANCED_FACE ( 'NONE', ( #108, #5 ), #185, .T. ) ;
#183 = CARTESIAN_POINT ( 'NONE',  ( 6.714850012974193520E-14, 1.157729775910420132E-14, 19.23209480821423867 ) ) ;
#184 = PRODUCT_DEFINITION_SHAPE ( 'NONE', 'NONE',  #30 ) ;
#185 = CYLINDRICAL_SURFACE ( 'NONE', #81, 6.015999999999991132 ) ;
#186 = AXIS2_PLACEMENT_3D ( 'NONE', #217, #158, #6 ) ;
#187 = PERSON_AND_ORGANIZATION_ROLE ( 'design_supplier' ) ;
#188 = CARTESIAN_POINT ( 'NONE',  ( 1.159350075327391567E-29, 1.998874286569516097E-30, 3.320510587954424789E-15 ) ) ;
#189 = ADVANCED_FACE ( 'NONE', ( #169 ), #19, .T. ) ;
#190 = DIRECTION ( 'NONE',  ( 0.000000000000000000, 1.000000000000000000, 0.000000000000000000 ) ) ;
#191 = DESIGN_CONTEXT ( 'detailed design', #143, 'design' ) ;
#192 = DIRECTION ( 'NONE',  ( 3.491481338843133355E-15, 6.019779891142907784E-16, 1.000000000000000000 ) ) ;
#193 = AXIS2_PLACEMENT_3D ( 'NONE', #188, #226, #2 ) ;
#194 =( GEOMETRIC_REPRESENTATION_CONTEXT ( 3 ) GLOBAL_UNCERTAINTY_ASSIGNED_CONTEXT ( ( #118 ) ) GLOBAL_UNIT_ASSIGNED_CONTEXT ( ( #176, #137, #63 ) ) REPRESENTATION_CONTEXT ( 'NONE', 'WORKASPACE' ) );
#195 = FACE_BOUND ( 'NONE', #180, .T. ) ;
#196 = EDGE_CURVE ( 'NONE', #27, #27, #86, .T. ) ;
#197 = CARTESIAN_POINT ( 'NONE',  ( 4.643670180661366731E-13, 3.999999999999983569, 133.0000000000000000 ) ) ;
#198 = APPLICATION_PROTOCOL_DEFINITION ( 'international standard', 'config_control_design', 1994, #78 ) ;
#199 = CC_DESIGN_APPROVAL ( #13, ( #67 ) ) ;
#200 = DIRECTION ( 'NONE',  ( -3.491481338843133355E-15, 1.371972729871846822E-16, -1.000000000000000000 ) ) ;
#201 = CARTESIAN_POINT ( 'NONE',  ( 4.608755367272936534E-13, 4.999999999999983125, 132.0000000000000000 ) ) ;
#202 = EDGE_LOOP ( 'NONE', ( #87 ) ) ;
#203 = APPROVAL_STATUS ( 'not_yet_approved' ) ;
#204 = EDGE_LOOP ( 'NONE', ( #122 ) ) ;
#205 = COORDINATED_UNIVERSAL_TIME_OFFSET ( 1, 0, .AHEAD. ) ;
#206 = LOCAL_TIME ( 13, 59, 4.000000000000000000, #228 ) ;
#207 = ADVANCED_FACE ( 'NONE', ( #90 ), #152, .T. ) ;
#208 = DIRECTION ( 'NONE',  ( 4.790217183749224165E-31, 1.000000000000000000, 1.371972729871846822E-16 ) ) ;
#209 = PERSON_AND_ORGANIZATION_ROLE ( 'classification_officer' ) ;
#210 = FACE_OUTER_BOUND ( 'NONE', #202, .T. ) ;
#211 = CARTESIAN_POINT ( 'NONE',  ( 1.745740669421579102E-15, 3.009889945571475586E-16, 0.5000000000000035527 ) ) ;
#212 = DIRECTION ( 'NONE',  ( -3.491481338843133355E-15, 1.371972729871846822E-16, -1.000000000000000000 ) ) ;
#213 = CARTESIAN_POINT ( 'NONE',  ( 7.329268197145786943E-14, 4.999999999999984013, 20.99185842870426200 ) ) ;
#214 = CC_DESIGN_PERSON_AND_ORGANIZATION_ASSIGNMENT ( #125, #240, ( #142 ) ) ;
#215 = PERSON_AND_ORGANIZATION ( #230, #7 ) ;
#216 = DIRECTION ( 'NONE',  ( 1.000000000000000000, 0.000000000000000000, 0.000000000000000000 ) ) ;
#217 = CARTESIAN_POINT ( 'NONE',  ( 6.714850012974192258E-14, -2.638590961517985685E-15, 19.23209480821423512 ) ) ;
#218 = EDGE_LOOP ( 'NONE', ( #149 ) ) ;
#219 = APPROVAL_ROLE ( '' ) ;
#220 = EDGE_LOOP ( 'NONE', ( #69 ) ) ;
#221 = EDGE_LOOP ( 'NONE', ( #146 ) ) ;
#222 = ADVANCED_FACE ( 'NONE', ( #195, #177 ), #29, .T. ) ;
#223 = CIRCLE ( 'NONE', #238, 6.015999999999996461 ) ;
#224 = APPROVAL_STATUS ( 'not_yet_approved' ) ;
#225 = FACE_OUTER_BOUND ( 'NONE', #36, .T. ) ;
#226 = DIRECTION ( 'NONE',  ( -3.491481338843133355E-15, -6.019779891142907784E-16, -1.000000000000000000 ) ) ;
#227 = CLOSED_SHELL ( 'NONE', ( #189, #222, #97, #24, #124 ) ) ;
#228 = COORDINATED_UNIVERSAL_TIME_OFFSET ( 1, 0, .AHEAD. ) ;
#229 = EDGE_CURVE ( 'NONE', #79, #79, #174, .T. ) ;
#230 = PERSON ( 'UNSPECIFIED', 'UNSPECIFIED', 'UNSPECIFIED', ('UNSPECIFIED'), ('UNSPECIFIED'), ('UNSPECIFIED') ) ;
#231 = FACE_OUTER_BOUND ( 'NONE', #55, .T. ) ;
#232 = CONICAL_SURFACE ( 'NONE', #131, 6.016000000000000014, 0.5235987755982933756 ) ;
#233 = DIRECTION ( 'NONE',  ( 3.491481338843133355E-15, 6.019779891142907784E-16, 1.000000000000000000 ) ) ;
#234 = ADVANCED_FACE ( 'NONE', ( #231, #82 ), #96, .T. ) ;
#235 = APPLICATION_PROTOCOL_DEFINITION ( 'international standard', 'config_control_design', 1994, #143 ) ;
#236 = PRODUCT_RELATED_PRODUCT_CATEGORY ( 'detail', '', ( #43 ) ) ;
#237 = COORDINATED_UNIVERSAL_TIME_OFFSET ( 1, 0, .AHEAD. ) ;
#238 = AXIS2_PLACEMENT_3D ( 'NONE', #211, #23, #151 ) ;
#239 = MANIFOLD_SOLID_BREP ( 'Corps-Déplacer/Copier1[1]', #227 ) ;
#240 = PERSON_AND_ORGANIZATION_ROLE ( 'creator' ) ;
#241 = EDGE_LOOP ( 'NONE', ( #18 ) ) ;
#242 = AXIS2_PLACEMENT_3D ( 'NONE', #48, #233, #64 ) ;
#243 = DATE_AND_TIME ( #85, #4 ) ;
ENDSEC;
END-ISO-10303-21;
