ISO-10303-21;
HEADER;
FILE_DESCRIPTION (( 'STEP AP203' ),
    '1' );
FILE_NAME ('420562.step',
    '2023-09-28T11:59:03',
    ( '' ),
    ( '' ),
    'SwSTEP 2.0',
    'SolidWorks 2022',
    '' );
FILE_SCHEMA (( 'CONFIG_CONTROL_DESIGN' ));
ENDSEC;

DATA;
#1 = FACE_OUTER_BOUND ( 'NONE', #60, .T. ) ;
#2 = DIRECTION ( 'NONE',  ( -3.491481338843133355E-15, 1.371972729871846822E-16, -1.000000000000000000 ) ) ;
#3 = DIRECTION ( 'NONE',  ( 0.000000000000000000, 1.000000000000000000, 0.000000000000000000 ) ) ;
#4 = MANIFOLD_SOLID_BREP ( 'Corps-Déplacer/Copier1[2]', #229 ) ;
#5 = FACE_OUTER_BOUND ( 'NONE', #35, .T. ) ;
#6 = VERTEX_POINT ( 'NONE', #36 ) ;
#7 = APPROVAL ( #130, 'UNSPECIFIED' ) ;
#8 = FACE_OUTER_BOUND ( 'NONE', #164, .T. ) ;
#9 = PERSON_AND_ORGANIZATION_ROLE ( 'creator' ) ;
#10 = CIRCLE ( 'NONE', #29, 4.999999999999985789 ) ;
#11 = SECURITY_CLASSIFICATION ( '', '', #148 ) ;
#12 = EDGE_LOOP ( 'NONE', ( #126 ) ) ;
#13 = PERSON ( 'UNSPECIFIED', 'UNSPECIFIED', 'UNSPECIFIED', ('UNSPECIFIED'), ('UNSPECIFIED'), ('UNSPECIFIED') ) ;
#14 = PERSON_AND_ORGANIZATION ( #13, #243 ) ;
#15 = AXIS2_PLACEMENT_3D ( 'NONE', #108, #129, #204 ) ;
#16 = EDGE_LOOP ( 'NONE', ( #89 ) ) ;
#17 = DATE_TIME_ROLE ( 'classification_date' ) ;
#18 = EDGE_CURVE ( 'NONE', #57, #57, #184, .T. ) ;
#19 = EDGE_LOOP ( 'NONE', ( #84 ) ) ;
#20 = PERSON_AND_ORGANIZATION_ROLE ( 'classification_officer' ) ;
#21 = CARTESIAN_POINT ( 'NONE',  ( 4.608755367272936534E-13, -1.811004003430837835E-14, 132.0000000000000000 ) ) ;
#22 = DATE_TIME_ROLE ( 'creation_date' ) ;
#23 = DIRECTION ( 'NONE',  ( -2.099134259487361937E-30, 1.000000000000000000, -6.012159469776483317E-16 ) ) ;
#24 = PLANE ( 'NONE',  #142 ) ;
#25 = CC_DESIGN_PERSON_AND_ORGANIZATION_ASSIGNMENT ( #207, #44, ( #99 ) ) ;
#26 = FACE_OUTER_BOUND ( 'NONE', #86, .T. ) ;
#27 = DIRECTION ( 'NONE',  ( -3.491481338843133355E-15, 1.371972729871846822E-16, -1.000000000000000000 ) ) ;
#28 = AXIS2_PLACEMENT_3D ( 'NONE', #64, #43, #225 ) ;
#29 = AXIS2_PLACEMENT_3D ( 'NONE', #96, #75, #115 ) ;
#30 = CARTESIAN_POINT ( 'NONE',  ( 4.643670180661366731E-13, 3.999999999999983569, 133.0000000000000000 ) ) ;
#31 = MECHANICAL_CONTEXT ( 'NONE', #34, 'mechanical' ) ;
#32 = APPROVAL_DATE_TIME ( #196, #63 ) ;
#33 = CC_DESIGN_APPROVAL ( #63, ( #104 ) ) ;
#34 = APPLICATION_CONTEXT ( 'configuration controlled 3d designs of mechanical parts and assemblies' ) ;
#35 = EDGE_LOOP ( 'NONE', ( #161 ) ) ;
#36 = CARTESIAN_POINT ( 'NONE',  ( 6.720897436046746004E-14, 6.005999999999997563, 19.24941531628992308 ) ) ;
#37 = EDGE_CURVE ( 'NONE', #100, #100, #171, .T. ) ;
#38 = VERTEX_POINT ( 'NONE', #195 ) ;
#39 = EDGE_LOOP ( 'NONE', ( #73 ) ) ;
#40 = COORDINATED_UNIVERSAL_TIME_OFFSET ( 1, 0, .AHEAD. ) ;
#41 = ORIENTED_EDGE ( 'NONE', *, *, #37, .F. ) ;
#42 = ORIENTED_EDGE ( 'NONE', *, *, #101, .F. ) ;
#43 = DIRECTION ( 'NONE',  ( 3.491481338843133355E-15, -1.371972729871846822E-16, 1.000000000000000000 ) ) ;
#44 = PERSON_AND_ORGANIZATION_ROLE ( 'creator' ) ;
#45 = DATE_AND_TIME ( #116, #165 ) ;
#46 = AXIS2_PLACEMENT_3D ( 'NONE', #162, #145, #236 ) ;
#47 = FACE_OUTER_BOUND ( 'NONE', #185, .T. ) ;
#48 = EDGE_CURVE ( 'NONE', #227, #227, #206, .T. ) ;
#49 = PRODUCT_DEFINITION_SHAPE ( 'NONE', 'NONE',  #104 ) ;
#50 = CARTESIAN_POINT ( 'NONE',  ( 4.608755367272936534E-13, -1.811004003430837835E-14, 132.0000000000000000 ) ) ;
#51 = ADVANCED_FACE ( 'NONE', ( #156 ), #24, .T. ) ;
#52 = FACE_OUTER_BOUND ( 'NONE', #205, .T. ) ;
#53 = AXIS2_PLACEMENT_3D ( 'NONE', #172, #153, #167 ) ;
#54 = VERTEX_POINT ( 'NONE', #125 ) ;
#55 = COORDINATED_UNIVERSAL_TIME_OFFSET ( 1, 0, .AHEAD. ) ;
#56 = LOCAL_TIME ( 13, 59, 3.000000000000000000, #232 ) ;
#57 = VERTEX_POINT ( 'NONE', #30 ) ;
#58 = CONICAL_SURFACE ( 'NONE', #147, 6.006000000000000227, 0.5235987755982930425 ) ;
#59 = CYLINDRICAL_SURFACE ( 'NONE', #46, 4.999999999999993783 ) ;
#60 = EDGE_LOOP ( 'NONE', ( #241 ) ) ;
#61 = APPLICATION_CONTEXT ( 'configuration controlled 3d designs of mechanical parts and assemblies' ) ;
#62 = COORDINATED_UNIVERSAL_TIME_OFFSET ( 1, 0, .AHEAD. ) ;
#63 = APPROVAL ( #144, 'UNSPECIFIED' ) ;
#64 = CARTESIAN_POINT ( 'NONE',  ( 4.643670180661366731E-13, -1.824723730729556232E-14, 133.0000000000000000 ) ) ;
#65 = FACE_OUTER_BOUND ( 'NONE', #178, .T. ) ;
#66 = DIRECTION ( 'NONE',  ( -2.052273001012044444E-30, 1.000000000000000000, -5.776634951637733073E-16 ) ) ;
#67 =( GEOMETRIC_REPRESENTATION_CONTEXT ( 3 ) GLOBAL_UNCERTAINTY_ASSIGNED_CONTEXT ( ( #79 ) ) GLOBAL_UNIT_ASSIGNED_CONTEXT ( ( #200, #173, #228 ) ) REPRESENTATION_CONTEXT ( 'NONE', 'WORKASPACE' ) );
#68 = PERSON_AND_ORGANIZATION ( #13, #243 ) ;
#69 = CARTESIAN_POINT ( 'NONE',  ( 1.745740669421566283E-15, 6.005999999999998451, 0.5000000000000000000 ) ) ;
#70 = CC_DESIGN_PERSON_AND_ORGANIZATION_ASSIGNMENT ( #102, #9, ( #104 ) ) ;
#71 = APPROVAL ( #94, 'UNSPECIFIED' ) ;
#72 = CARTESIAN_POINT ( 'NONE',  ( 4.643670180661366731E-13, -1.824723730729556232E-14, 133.0000000000000000 ) ) ;
#73 = ORIENTED_EDGE ( 'NONE', *, *, #18, .F. ) ;
#74 = APPROVAL_ROLE ( '' ) ;
#75 = DIRECTION ( 'NONE',  ( -3.491481338843133355E-15, 1.371972729871846822E-16, -1.000000000000000000 ) ) ;
#76 = PLANE ( 'NONE',  #28 ) ;
#77 = CARTESIAN_POINT ( 'NONE',  ( 6.720897436046747267E-14, 1.157305545814929641E-14, 19.24941531628992664 ) ) ;
#78 = CARTESIAN_POINT ( 'NONE',  ( -5.778916616368703655E-30, 5.505999999999996675, -1.655147502029464922E-15 ) ) ;
#79 = UNCERTAINTY_MEASURE_WITH_UNIT (LENGTH_MEASURE( 1.000000000000000082E-05 ), #200, 'distance_accuracy_value', 'NONE');
#80 = MANIFOLD_SOLID_BREP ( 'Corps-Déplacer/Copier1[1]', #124 ) ;
#81 = ADVANCED_FACE ( 'NONE', ( #26 ), #151, .T. ) ;
#82 = APPLICATION_PROTOCOL_DEFINITION ( 'international standard', 'config_control_design', 1994, #34 ) ;
#83 = ADVANCED_FACE ( 'NONE', ( #224, #65 ), #58, .T. ) ;
#84 = ORIENTED_EDGE ( 'NONE', *, *, #48, .F. ) ;
#85 = DIRECTION ( 'NONE',  ( 3.491481338843133355E-15, 6.012159469776483317E-16, 1.000000000000000000 ) ) ;
#86 = EDGE_LOOP ( 'NONE', ( #131 ) ) ;
#87 = CALENDAR_DATE ( 2023, 28, 9 ) ;
#88 = APPROVAL_PERSON_ORGANIZATION ( #242, #71, #74 ) ;
#89 = ORIENTED_EDGE ( 'NONE', *, *, #101, .T. ) ;
#90 = EDGE_LOOP ( 'NONE', ( #42 ) ) ;
#91 = APPROVAL_DATE_TIME ( #135, #71 ) ;
#92 = CARTESIAN_POINT ( 'NONE',  ( 6.720897436046748529E-14, 1.157305545814929641E-14, 19.24941531628993019 ) ) ;
#93 = CC_DESIGN_DATE_AND_TIME_ASSIGNMENT ( #45, #17, ( #11 ) ) ;
#94 = APPROVAL_STATUS ( 'not_yet_approved' ) ;
#95 = DIRECTION ( 'NONE',  ( -3.491481338843133355E-15, 1.371972729871846822E-16, -1.000000000000000000 ) ) ;
#96 = CARTESIAN_POINT ( 'NONE',  ( 7.329268197145786943E-14, -2.880025731351272149E-15, 20.99185842870426200 ) ) ;
#97 = CARTESIAN_POINT ( 'NONE',  ( 6.720897436046746004E-14, -2.640967287992722613E-15, 19.24941531628992308 ) ) ;
#98 = DIRECTION ( 'NONE',  ( 0.000000000000000000, 1.000000000000000000, 0.000000000000000000 ) ) ;
#99 = PRODUCT_DEFINITION_FORMATION_WITH_SPECIFIED_SOURCE ( 'ANY', '', #226, .NOT_KNOWN. ) ;
#100 = VERTEX_POINT ( 'NONE', #69 ) ;
#101 = EDGE_CURVE ( 'NONE', #38, #38, #10, .T. ) ;
#102 = PERSON_AND_ORGANIZATION ( #13, #243 ) ;
#103 = AXIS2_PLACEMENT_3D ( 'NONE', #50, #95, #119 ) ;
#104 = PRODUCT_DEFINITION ( 'UNKNOWN', '', #99, #218 ) ;
#105 = AXIS2_PLACEMENT_3D ( 'NONE', #217, #128, #143 ) ;
#106 = CARTESIAN_POINT ( 'NONE',  ( 1.155783323273740731E-29, 1.990202145640667906E-30, 3.310295004058929844E-15 ) ) ;
#107 = DIRECTION ( 'NONE',  ( -2.099134259487361937E-30, 1.000000000000000000, -6.012159469776484303E-16 ) ) ;
#108 = CARTESIAN_POINT ( 'NONE',  ( 1.745740669421579102E-15, 3.006079734888263352E-16, 0.5000000000000035527 ) ) ;
#109 = ADVANCED_FACE ( 'NONE', ( #211, #5 ), #132, .T. ) ;
#110 = CALENDAR_DATE ( 2023, 28, 9 ) ;
#111 = EDGE_LOOP ( 'NONE', ( #41 ) ) ;
#112 = LOCAL_TIME ( 13, 59, 3.000000000000000000, #40 ) ;
#113 = CALENDAR_DATE ( 2023, 28, 9 ) ;
#114 = CC_DESIGN_PERSON_AND_ORGANIZATION_ASSIGNMENT ( #174, #157, ( #226 ) ) ;
#115 = DIRECTION ( 'NONE',  ( 0.000000000000000000, 1.000000000000000000, 0.000000000000000000 ) ) ;
#116 = CALENDAR_DATE ( 2023, 28, 9 ) ;
#117 = APPROVAL_PERSON_ORGANIZATION ( #68, #63, #214 ) ;
#118 = CYLINDRICAL_SURFACE ( 'NONE', #213, 6.005999999999992234 ) ;
#119 = DIRECTION ( 'NONE',  ( 0.000000000000000000, 1.000000000000000000, 0.000000000000000000 ) ) ;
#120 = CC_DESIGN_APPROVAL ( #71, ( #99 ) ) ;
#121 = FACE_OUTER_BOUND ( 'NONE', #90, .T. ) ;
#122 = CARTESIAN_POINT ( 'NONE',  ( -1.368455531567204171E-45, 5.505999999999996675, 0.000000000000000000 ) ) ;
#123 = CALENDAR_DATE ( 2023, 28, 9 ) ;
#124 = CLOSED_SHELL ( 'NONE', ( #154, #109, #230, #83, #81 ) ) ;
#125 = CARTESIAN_POINT ( 'NONE',  ( 4.608755367272936534E-13, 4.999999999999983125, 132.0000000000000000 ) ) ;
#126 = ORIENTED_EDGE ( 'NONE', *, *, #18, .T. ) ;
#127 = AXIS2_PLACEMENT_3D ( 'NONE', #170, #2, #212 ) ;
#128 = DIRECTION ( 'NONE',  ( 0.000000000000000000, 0.000000000000000000, 1.000000000000000000 ) ) ;
#129 = DIRECTION ( 'NONE',  ( -3.491481338843133355E-15, -6.012159469776483317E-16, -1.000000000000000000 ) ) ;
#130 = APPROVAL_STATUS ( 'not_yet_approved' ) ;
#131 = ORIENTED_EDGE ( 'NONE', *, *, #146, .T. ) ;
#132 = CONICAL_SURFACE ( 'NONE', #103, 5.000000000000000888, 0.7853981633974473908 ) ;
#133 = EDGE_CURVE ( 'NONE', #194, #194, #159, .T. ) ;
#134 = FACE_OUTER_BOUND ( 'NONE', #39, .T. ) ;
#135 = DATE_AND_TIME ( #113, #112 ) ;
#136 = DIRECTION ( 'NONE',  ( 3.491481338843133355E-15, 6.012159469776483317E-16, 1.000000000000000000 ) ) ;
#137 = FACE_OUTER_BOUND ( 'NONE', #111, .T. ) ;
#138 = AXIS2_PLACEMENT_3D ( 'NONE', #106, #85, #180 ) ;
#139 = PRODUCT_RELATED_PRODUCT_CATEGORY ( 'detail', '', ( #226 ) ) ;
#140 = DIRECTION ( 'NONE',  ( -2.099134259487361937E-30, 1.000000000000000000, -6.012159469776483317E-16 ) ) ;
#141 = EDGE_CURVE ( 'NONE', #54, #54, #239, .T. ) ;
#142 = AXIS2_PLACEMENT_3D ( 'NONE', #78, #192, #23 ) ;
#143 = DIRECTION ( 'NONE',  ( 1.000000000000000000, 0.000000000000000000, 0.000000000000000000 ) ) ;
#144 = APPROVAL_STATUS ( 'not_yet_approved' ) ;
#145 = DIRECTION ( 'NONE',  ( -3.491481338843133355E-15, 1.371972729871846822E-16, -1.000000000000000000 ) ) ;
#146 = EDGE_CURVE ( 'NONE', #6, #6, #155, .T. ) ;
#147 = AXIS2_PLACEMENT_3D ( 'NONE', #97, #187, #3 ) ;
#148 = SECURITY_CLASSIFICATION_LEVEL ( 'unclassified' ) ;
#149 = EDGE_LOOP ( 'NONE', ( #235 ) ) ;
#150 = CC_DESIGN_APPROVAL ( #7, ( #11 ) ) ;
#151 = PLANE ( 'NONE',  #127 ) ;
#152 = DATE_AND_TIME ( #110, #56 ) ;
#153 = DIRECTION ( 'NONE',  ( -3.491481338843133355E-15, 1.371972729871846822E-16, -1.000000000000000000 ) ) ;
#154 = ADVANCED_FACE ( 'NONE', ( #134 ), #76, .T. ) ;
#155 = CIRCLE ( 'NONE', #53, 6.006000000000000227 ) ;
#156 = FACE_OUTER_BOUND ( 'NONE', #149, .T. ) ;
#157 = PERSON_AND_ORGANIZATION_ROLE ( 'design_owner' ) ;
#158 = AXIS2_PLACEMENT_3D ( 'NONE', #77, #193, #66 ) ;
#159 = CIRCLE ( 'NONE', #158, 6.005999999999986017 ) ;
#160 = APPROVAL_PERSON_ORGANIZATION ( #166, #7, #222 ) ;
#161 = ORIENTED_EDGE ( 'NONE', *, *, #141, .F. ) ;
#162 = CARTESIAN_POINT ( 'NONE',  ( 0.000000000000000000, 0.000000000000000000, 0.000000000000000000 ) ) ;
#163 = DIRECTION ( 'NONE',  ( -3.491481338843133355E-15, 1.371972729871846822E-16, -1.000000000000000000 ) ) ;
#164 = EDGE_LOOP ( 'NONE', ( #202 ) ) ;
#165 = LOCAL_TIME ( 13, 59, 3.000000000000000000, #240 ) ;
#166 = PERSON_AND_ORGANIZATION ( #13, #243 ) ;
#167 = DIRECTION ( 'NONE',  ( 0.000000000000000000, 1.000000000000000000, 0.000000000000000000 ) ) ;
#168 = PERSON_AND_ORGANIZATION ( #13, #243 ) ;
#169 = PLANE ( 'NONE',  #177 ) ;
#170 = CARTESIAN_POINT ( 'NONE',  ( 6.720897436046747267E-14, 6.005999999999997563, 19.24941531628992664 ) ) ;
#171 = CIRCLE ( 'NONE', #15, 6.005999999999998451 ) ;
#172 = CARTESIAN_POINT ( 'NONE',  ( 6.720897436046746004E-14, -2.640967287992722613E-15, 19.24941531628992308 ) ) ;
#173 =( NAMED_UNIT ( * ) PLANE_ANGLE_UNIT ( ) SI_UNIT ( $, .RADIAN. ) );
#174 = PERSON_AND_ORGANIZATION ( #13, #243 ) ;
#175 = AXIS2_PLACEMENT_3D ( 'NONE', #181, #188, #140 ) ;
#176 = DIRECTION ( 'NONE',  ( -3.491481338843133355E-15, -6.012159469776483317E-16, -1.000000000000000000 ) ) ;
#177 = AXIS2_PLACEMENT_3D ( 'NONE', #92, #136, #209 ) ;
#178 = EDGE_LOOP ( 'NONE', ( #219 ) ) ;
#179 = CC_DESIGN_PERSON_AND_ORGANIZATION_ASSIGNMENT ( #14, #20, ( #11 ) ) ;
#180 = DIRECTION ( 'NONE',  ( 2.099134259487361937E-30, -1.000000000000000000, 6.012159469776483317E-16 ) ) ;
#181 = CARTESIAN_POINT ( 'NONE',  ( 1.155783323273740731E-29, 1.990202145640667906E-30, 3.310295004058929844E-15 ) ) ;
#182 = PERSON_AND_ORGANIZATION_ROLE ( 'design_supplier' ) ;
#183 = ORIENTED_EDGE ( 'NONE', *, *, #133, .F. ) ;
#184 = CIRCLE ( 'NONE', #233, 4.000000000000001776 ) ;
#185 = EDGE_LOOP ( 'NONE', ( #183 ) ) ;
#186 = SHAPE_DEFINITION_REPRESENTATION ( #49, #215 ) ;
#187 = DIRECTION ( 'NONE',  ( -3.491481338843133355E-15, 1.371972729871846822E-16, -1.000000000000000000 ) ) ;
#188 = DIRECTION ( 'NONE',  ( -3.491481338843133355E-15, -6.012159469776483317E-16, -1.000000000000000000 ) ) ;
#189 = AXIS2_PLACEMENT_3D ( 'NONE', #21, #27, #98 ) ;
#190 = CONICAL_SURFACE ( 'NONE', #138, 5.505999999999996675, 0.7853981633974492782 ) ;
#191 = CARTESIAN_POINT ( 'NONE',  ( 0.000000000000000000, 0.000000000000000000, 0.000000000000000000 ) ) ;
#192 = DIRECTION ( 'NONE',  ( -3.491481338843133355E-15, -6.012159469776483317E-16, -1.000000000000000000 ) ) ;
#193 = DIRECTION ( 'NONE',  ( -3.491481338843133355E-15, -6.012159469776483317E-16, -1.000000000000000000 ) ) ;
#194 = VERTEX_POINT ( 'NONE', #203 ) ;
#195 = CARTESIAN_POINT ( 'NONE',  ( 7.329268197145786943E-14, 4.999999999999984013, 20.99185842870426200 ) ) ;
#196 = DATE_AND_TIME ( #123, #198 ) ;
#197 = ADVANCED_FACE ( 'NONE', ( #47 ), #169, .T. ) ;
#198 = LOCAL_TIME ( 13, 59, 3.000000000000000000, #55 ) ;
#199 = CC_DESIGN_DATE_AND_TIME_ASSIGNMENT ( #152, #22, ( #104 ) ) ;
#200 =( LENGTH_UNIT ( ) NAMED_UNIT ( * ) SI_UNIT ( .MILLI., .METRE. ) );
#201 = LOCAL_TIME ( 13, 59, 3.000000000000000000, #62 ) ;
#202 = ORIENTED_EDGE ( 'NONE', *, *, #37, .T. ) ;
#203 = CARTESIAN_POINT ( 'NONE',  ( 6.720897436046746004E-14, 6.005999999999997563, 19.24941531628992308 ) ) ;
#204 = DIRECTION ( 'NONE',  ( -2.116406532293666442E-30, 1.000000000000000000, -5.957154793876399875E-16 ) ) ;
#205 = EDGE_LOOP ( 'NONE', ( #220 ) ) ;
#206 = CIRCLE ( 'NONE', #175, 5.505999999999996675 ) ;
#207 = PERSON_AND_ORGANIZATION ( #13, #243 ) ;
#208 = DATE_AND_TIME ( #87, #201 ) ;
#209 = DIRECTION ( 'NONE',  ( 2.099134259487361937E-30, -1.000000000000000000, 6.012159469776483317E-16 ) ) ;
#210 = APPROVAL_DATE_TIME ( #208, #7 ) ;
#211 = FACE_BOUND ( 'NONE', #12, .T. ) ;
#212 = DIRECTION ( 'NONE',  ( 4.790217183749224165E-31, 1.000000000000000000, 1.371972729871846822E-16 ) ) ;
#213 = AXIS2_PLACEMENT_3D ( 'NONE', #191, #176, #107 ) ;
#214 = APPROVAL_ROLE ( '' ) ;
#215 = ADVANCED_BREP_SHAPE_REPRESENTATION ( '420562', ( #80, #4, #105 ), #67 ) ;
#216 = FACE_BOUND ( 'NONE', #19, .T. ) ;
#217 = CARTESIAN_POINT ( 'NONE',  ( 0.000000000000000000, 0.000000000000000000, 0.000000000000000000 ) ) ;
#218 = DESIGN_CONTEXT ( 'detailed design', #61, 'design' ) ;
#219 = ORIENTED_EDGE ( 'NONE', *, *, #146, .F. ) ;
#220 = ORIENTED_EDGE ( 'NONE', *, *, #141, .T. ) ;
#221 = CC_DESIGN_PERSON_AND_ORGANIZATION_ASSIGNMENT ( #168, #182, ( #99 ) ) ;
#222 = APPROVAL_ROLE ( '' ) ;
#223 = ADVANCED_FACE ( 'NONE', ( #1, #137 ), #118, .T. ) ;
#224 = FACE_BOUND ( 'NONE', #16, .T. ) ;
#225 = DIRECTION ( 'NONE',  ( -4.790217183749224165E-31, -1.000000000000000000, -1.371972729871846822E-16 ) ) ;
#226 = PRODUCT ( '420562', '420562', '', ( #31 ) ) ;
#227 = VERTEX_POINT ( 'NONE', #122 ) ;
#228 =( NAMED_UNIT ( * ) SI_UNIT ( $, .STERADIAN. ) SOLID_ANGLE_UNIT ( ) );
#229 = CLOSED_SHELL ( 'NONE', ( #197, #223, #238, #51 ) ) ;
#230 = ADVANCED_FACE ( 'NONE', ( #52, #121 ), #59, .T. ) ;
#231 = APPLICATION_PROTOCOL_DEFINITION ( 'international standard', 'config_control_design', 1994, #61 ) ;
#232 = COORDINATED_UNIVERSAL_TIME_OFFSET ( 1, 0, .AHEAD. ) ;
#233 = AXIS2_PLACEMENT_3D ( 'NONE', #72, #163, #237 ) ;
#234 = CC_DESIGN_SECURITY_CLASSIFICATION ( #11, ( #99 ) ) ;
#235 = ORIENTED_EDGE ( 'NONE', *, *, #48, .T. ) ;
#236 = DIRECTION ( 'NONE',  ( 4.790217183749224165E-31, 1.000000000000000000, 1.371972729871846822E-16 ) ) ;
#237 = DIRECTION ( 'NONE',  ( 0.000000000000000000, 1.000000000000000000, 0.000000000000000000 ) ) ;
#238 = ADVANCED_FACE ( 'NONE', ( #8, #216 ), #190, .T. ) ;
#239 = CIRCLE ( 'NONE', #189, 5.000000000000000888 ) ;
#240 = COORDINATED_UNIVERSAL_TIME_OFFSET ( 1, 0, .AHEAD. ) ;
#241 = ORIENTED_EDGE ( 'NONE', *, *, #133, .T. ) ;
#242 = PERSON_AND_ORGANIZATION ( #13, #243 ) ;
#243 = ORGANIZATION ( 'UNSPECIFIED', 'UNSPECIFIED', '' ) ;
ENDSEC;
END-ISO-10303-21;
