ISO-10303-21;
HEADER;
FILE_DESCRIPTION (( 'STEP AP203' ),
    '1' );
FILE_NAME ('420561.step',
    '2023-09-28T11:59:03',
    ( '' ),
    ( '' ),
    'SwSTEP 2.0',
    'SolidWorks 2022',
    '' );
FILE_SCHEMA (( 'CONFIG_CONTROL_DESIGN' ));
ENDSEC;

DATA;
#1 = DIRECTION ( 'NONE',  ( 2.072788696702757631E-30, -1.000000000000000000, 5.936702778968754188E-16 ) ) ;
#2 = APPLICATION_PROTOCOL_DEFINITION ( 'international standard', 'config_control_design', 1994, #214 ) ;
#3 = CARTESIAN_POINT ( 'NONE',  ( 6.781371666772297353E-14, 5.905999999999997030, 19.42262039704681698 ) ) ;
#4 = APPROVAL_PERSON_ORGANIZATION ( #70, #134, #167 ) ;
#5 = APPROVAL ( #228, 'UNSPECIFIED' ) ;
#6 = FACE_OUTER_BOUND ( 'NONE', #211, .T. ) ;
#7 = EDGE_LOOP ( 'NONE', ( #36 ) ) ;
#8 = APPROVAL_ROLE ( '' ) ;
#9 = SHAPE_DEFINITION_REPRESENTATION ( #191, #54 ) ;
#10 = CC_DESIGN_APPROVAL ( #11, ( #60 ) ) ;
#11 = APPROVAL ( #199, 'UNSPECIFIED' ) ;
#12 = CARTESIAN_POINT ( 'NONE',  ( 6.781371666772297353E-14, -2.664730552740093477E-15, 19.42262039704681698 ) ) ;
#13 = CIRCLE ( 'NONE', #52, 5.905999999999985484 ) ;
#14 = CARTESIAN_POINT ( 'NONE',  ( 6.781371666772298615E-14, 1.153063244860030726E-14, 19.42262039704682053 ) ) ;
#15 = DATE_AND_TIME ( #71, #113 ) ;
#16 = DIRECTION ( 'NONE',  ( -3.491481338843133355E-15, 1.371972729871846822E-16, -1.000000000000000000 ) ) ;
#17 = ADVANCED_FACE ( 'NONE', ( #110, #63 ), #149, .T. ) ;
#18 = DIRECTION ( 'NONE',  ( 0.000000000000000000, 1.000000000000000000, 0.000000000000000000 ) ) ;
#19 = EDGE_LOOP ( 'NONE', ( #221 ) ) ;
#20 = EDGE_LOOP ( 'NONE', ( #198 ) ) ;
#21 = DIRECTION ( 'NONE',  ( -2.072788696702757631E-30, 1.000000000000000000, -5.936702778968754188E-16 ) ) ;
#22 = LOCAL_TIME ( 13, 59, 3.000000000000000000, #126 ) ;
#23 = CLOSED_SHELL ( 'NONE', ( #175, #17, #240, #220 ) ) ;
#24 = DIRECTION ( 'NONE',  ( -3.491481338843133355E-15, -5.936702778968754188E-16, -1.000000000000000000 ) ) ;
#25 = CC_DESIGN_PERSON_AND_ORGANIZATION_ASSIGNMENT ( #140, #141, ( #60 ) ) ;
#26 = ORIENTED_EDGE ( 'NONE', *, *, #236, .F. ) ;
#27 = PERSON_AND_ORGANIZATION ( #195, #176 ) ;
#28 = AXIS2_PLACEMENT_3D ( 'NONE', #166, #185, #18 ) ;
#29 = DATE_TIME_ROLE ( 'classification_date' ) ;
#30 = APPROVAL_DATE_TIME ( #160, #5 ) ;
#31 = CONICAL_SURFACE ( 'NONE', #128, 5.405999999999994365, 0.7853981633974502774 ) ;
#32 = CC_DESIGN_DATE_AND_TIME_ASSIGNMENT ( #217, #106, ( #82 ) ) ;
#33 = DIRECTION ( 'NONE',  ( 3.491481338843133355E-15, -1.371972729871846822E-16, 1.000000000000000000 ) ) ;
#34 = COORDINATED_UNIVERSAL_TIME_OFFSET ( 1, 0, .AHEAD. ) ;
#35 = FACE_OUTER_BOUND ( 'NONE', #81, .T. ) ;
#36 = ORIENTED_EDGE ( 'NONE', *, *, #143, .T. ) ;
#37 = CC_DESIGN_DATE_AND_TIME_ASSIGNMENT ( #201, #29, ( #60 ) ) ;
#38 = CARTESIAN_POINT ( 'NONE',  ( 6.781371666772297353E-14, -2.664730552740093477E-15, 19.42262039704681698 ) ) ;
#39 = CARTESIAN_POINT ( 'NONE',  ( 0.000000000000000000, 0.000000000000000000, 0.000000000000000000 ) ) ;
#40 = AXIS2_PLACEMENT_3D ( 'NONE', #189, #168, #93 ) ;
#41 = DIRECTION ( 'NONE',  ( -2.087021951249291795E-30, 1.000000000000000000, -5.874444551225222499E-16 ) ) ;
#42 = CC_DESIGN_PERSON_AND_ORGANIZATION_ASSIGNMENT ( #183, #219, ( #73 ) ) ;
#43 = EDGE_LOOP ( 'NONE', ( #80 ) ) ;
#44 = PLANE ( 'NONE',  #234 ) ;
#45 = AXIS2_PLACEMENT_3D ( 'NONE', #156, #49, #210 ) ;
#46 = MECHANICAL_CONTEXT ( 'NONE', #142, 'mechanical' ) ;
#47 = VERTEX_POINT ( 'NONE', #197 ) ;
#48 = PRODUCT_RELATED_PRODUCT_CATEGORY ( 'detail', '', ( #200 ) ) ;
#49 = DIRECTION ( 'NONE',  ( 0.000000000000000000, 0.000000000000000000, 1.000000000000000000 ) ) ;
#50 = ORIENTED_EDGE ( 'NONE', *, *, #64, .F. ) ;
#51 = AXIS2_PLACEMENT_3D ( 'NONE', #89, #24, #41 ) ;
#52 = AXIS2_PLACEMENT_3D ( 'NONE', #14, #239, #111 ) ;
#53 = PERSON_AND_ORGANIZATION ( #195, #176 ) ;
#54 = ADVANCED_BREP_SHAPE_REPRESENTATION ( '420561', ( #171, #163, #45 ), #96 ) ;
#55 = CC_DESIGN_APPROVAL ( #134, ( #73 ) ) ;
#56 = EDGE_CURVE ( 'NONE', #212, #212, #226, .T. ) ;
#57 = EDGE_LOOP ( 'NONE', ( #26 ) ) ;
#58 = CALENDAR_DATE ( 2023, 28, 9 ) ;
#59 = DIRECTION ( 'NONE',  ( -3.491481338843133355E-15, -5.936702778968754188E-16, -1.000000000000000000 ) ) ;
#60 = SECURITY_CLASSIFICATION ( '', '', #91 ) ;
#61 = DIRECTION ( 'NONE',  ( -3.491481338843133355E-15, 1.371972729871846822E-16, -1.000000000000000000 ) ) ;
#62 = DIRECTION ( 'NONE',  ( 0.000000000000000000, 1.000000000000000000, 0.000000000000000000 ) ) ;
#63 = FACE_OUTER_BOUND ( 'NONE', #57, .T. ) ;
#64 = EDGE_CURVE ( 'NONE', #101, #101, #13, .T. ) ;
#65 = VERTEX_POINT ( 'NONE', #155 ) ;
#66 = APPROVAL_PERSON_ORGANIZATION ( #88, #5, #67 ) ;
#67 = APPROVAL_ROLE ( '' ) ;
#68 = CARTESIAN_POINT ( 'NONE',  ( 4.643670180661366731E-13, 3.999999999999983569, 133.0000000000000000 ) ) ;
#69 = ORIENTED_EDGE ( 'NONE', *, *, #64, .T. ) ;
#70 = PERSON_AND_ORGANIZATION ( #195, #176 ) ;
#71 = CALENDAR_DATE ( 2023, 28, 9 ) ;
#72 = EDGE_CURVE ( 'NONE', #152, #152, #180, .T. ) ;
#73 = PRODUCT_DEFINITION_FORMATION_WITH_SPECIFIED_SOURCE ( 'ANY', '', #200, .NOT_KNOWN. ) ;
#74 = AXIS2_PLACEMENT_3D ( 'NONE', #238, #99, #207 ) ;
#75 = EDGE_LOOP ( 'NONE', ( #151 ) ) ;
#76 = PERSON_AND_ORGANIZATION_ROLE ( 'design_supplier' ) ;
#77 = DIRECTION ( 'NONE',  ( -3.491481338843133355E-15, 1.371972729871846822E-16, -1.000000000000000000 ) ) ;
#78 = CC_DESIGN_APPROVAL ( #5, ( #82 ) ) ;
#79 = FACE_BOUND ( 'NONE', #178, .T. ) ;
#80 = ORIENTED_EDGE ( 'NONE', *, *, #154, .F. ) ;
#81 = EDGE_LOOP ( 'NONE', ( #90 ) ) ;
#82 = PRODUCT_DEFINITION ( 'UNKNOWN', '', #73, #181 ) ;
#83 = DIRECTION ( 'NONE',  ( -3.491481338843133355E-15, -5.936702778968754188E-16, -1.000000000000000000 ) ) ;
#84 = AXIS2_PLACEMENT_3D ( 'NONE', #147, #242, #1 ) ;
#85 = AXIS2_PLACEMENT_3D ( 'NONE', #172, #33, #208 ) ;
#86 = CARTESIAN_POINT ( 'NONE',  ( 1.120549569437509631E-29, 1.905314420227174526E-30, 3.209381522310505179E-15 ) ) ;
#87 = CC_DESIGN_PERSON_AND_ORGANIZATION_ASSIGNMENT ( #123, #232, ( #82 ) ) ;
#88 = PERSON_AND_ORGANIZATION ( #195, #176 ) ;
#89 = CARTESIAN_POINT ( 'NONE',  ( 1.745740669421578708E-15, 2.968351389484397802E-16, 0.5000000000000034417 ) ) ;
#90 = ORIENTED_EDGE ( 'NONE', *, *, #72, .F. ) ;
#91 = SECURITY_CLASSIFICATION_LEVEL ( 'unclassified' ) ;
#92 = ADVANCED_FACE ( 'NONE', ( #79, #35 ), #125, .T. ) ;
#93 = DIRECTION ( 'NONE',  ( 4.790217183749224165E-31, 1.000000000000000000, 1.371972729871846822E-16 ) ) ;
#94 = DIRECTION ( 'NONE',  ( 0.000000000000000000, 1.000000000000000000, 0.000000000000000000 ) ) ;
#95 = DIRECTION ( 'NONE',  ( 4.790217183749224165E-31, 1.000000000000000000, 1.371972729871846822E-16 ) ) ;
#96 =( GEOMETRIC_REPRESENTATION_CONTEXT ( 3 ) GLOBAL_UNCERTAINTY_ASSIGNED_CONTEXT ( ( #233 ) ) GLOBAL_UNIT_ASSIGNED_CONTEXT ( ( #209, #100, #137 ) ) REPRESENTATION_CONTEXT ( 'NONE', 'WORKASPACE' ) );
#97 = ORIENTED_EDGE ( 'NONE', *, *, #236, .T. ) ;
#98 = AXIS2_PLACEMENT_3D ( 'NONE', #12, #205, #62 ) ;
#99 = DIRECTION ( 'NONE',  ( -3.491481338843133355E-15, 1.371972729871846822E-16, -1.000000000000000000 ) ) ;
#100 =( NAMED_UNIT ( * ) PLANE_ANGLE_UNIT ( ) SI_UNIT ( $, .RADIAN. ) );
#101 = VERTEX_POINT ( 'NONE', #3 ) ;
#102 = DIRECTION ( 'NONE',  ( -2.072788696702757631E-30, 1.000000000000000000, -5.936702778968754188E-16 ) ) ;
#103 = ORIENTED_EDGE ( 'NONE', *, *, #56, .F. ) ;
#104 = CC_DESIGN_PERSON_AND_ORGANIZATION_ASSIGNMENT ( #118, #174, ( #200 ) ) ;
#105 = COORDINATED_UNIVERSAL_TIME_OFFSET ( 1, 0, .AHEAD. ) ;
#106 = DATE_TIME_ROLE ( 'creation_date' ) ;
#107 = ADVANCED_FACE ( 'NONE', ( #235, #224 ), #115, .T. ) ;
#108 = CARTESIAN_POINT ( 'NONE',  ( 4.643670180661366731E-13, -1.824723730729556232E-14, 133.0000000000000000 ) ) ;
#109 = AXIS2_PLACEMENT_3D ( 'NONE', #203, #61, #112 ) ;
#110 = FACE_OUTER_BOUND ( 'NONE', #138, .T. ) ;
#111 = DIRECTION ( 'NONE',  ( -2.087021951249295649E-30, 1.000000000000000000, -5.874444551225233346E-16 ) ) ;
#112 = DIRECTION ( 'NONE',  ( 0.000000000000000000, 1.000000000000000000, 0.000000000000000000 ) ) ;
#113 = LOCAL_TIME ( 13, 59, 3.000000000000000000, #105 ) ;
#114 = CYLINDRICAL_SURFACE ( 'NONE', #40, 4.999999999999993783 ) ;
#115 = CONICAL_SURFACE ( 'NONE', #28, 5.000000000000000888, 0.7853981633974473908 ) ;
#116 = ORIENTED_EDGE ( 'NONE', *, *, #56, .T. ) ;
#117 = APPLICATION_PROTOCOL_DEFINITION ( 'international standard', 'config_control_design', 1994, #142 ) ;
#118 = PERSON_AND_ORGANIZATION ( #195, #176 ) ;
#119 = CIRCLE ( 'NONE', #218, 5.405999999999994365 ) ;
#120 = CARTESIAN_POINT ( 'NONE',  ( 0.000000000000000000, 5.405999999999994365, 0.000000000000000000 ) ) ;
#121 = FACE_BOUND ( 'NONE', #161, .T. ) ;
#122 = EDGE_LOOP ( 'NONE', ( #50 ) ) ;
#123 = PERSON_AND_ORGANIZATION ( #195, #176 ) ;
#124 = AXIS2_PLACEMENT_3D ( 'NONE', #39, #59, #169 ) ;
#125 = CONICAL_SURFACE ( 'NONE', #98, 5.905999999999999694, 0.5235987755982938197 ) ;
#126 = COORDINATED_UNIVERSAL_TIME_OFFSET ( 1, 0, .AHEAD. ) ;
#127 = DATE_AND_TIME ( #237, #202 ) ;
#128 = AXIS2_PLACEMENT_3D ( 'NONE', #230, #177, #193 ) ;
#129 = DIRECTION ( 'NONE',  ( -3.491481338843133355E-15, 1.371972729871846822E-16, -1.000000000000000000 ) ) ;
#130 = ADVANCED_FACE ( 'NONE', ( #145, #223 ), #114, .T. ) ;
#131 = DIRECTION ( 'NONE',  ( 0.000000000000000000, 1.000000000000000000, 0.000000000000000000 ) ) ;
#132 = FACE_OUTER_BOUND ( 'NONE', #20, .T. ) ;
#133 = EDGE_LOOP ( 'NONE', ( #103 ) ) ;
#134 = APPROVAL ( #222, 'UNSPECIFIED' ) ;
#135 = PLANE ( 'NONE',  #85 ) ;
#136 = COORDINATED_UNIVERSAL_TIME_OFFSET ( 1, 0, .AHEAD. ) ;
#137 =( NAMED_UNIT ( * ) SI_UNIT ( $, .STERADIAN. ) SOLID_ANGLE_UNIT ( ) );
#138 = EDGE_LOOP ( 'NONE', ( #69 ) ) ;
#139 = COORDINATED_UNIVERSAL_TIME_OFFSET ( 1, 0, .AHEAD. ) ;
#140 = PERSON_AND_ORGANIZATION ( #195, #176 ) ;
#141 = PERSON_AND_ORGANIZATION_ROLE ( 'classification_officer' ) ;
#142 = APPLICATION_CONTEXT ( 'configuration controlled 3d designs of mechanical parts and assemblies' ) ;
#143 = EDGE_CURVE ( 'NONE', #192, #192, #231, .T. ) ;
#144 = ORIENTED_EDGE ( 'NONE', *, *, #216, .F. ) ;
#145 = FACE_OUTER_BOUND ( 'NONE', #7, .T. ) ;
#146 = AXIS2_PLACEMENT_3D ( 'NONE', #108, #129, #131 ) ;
#147 = CARTESIAN_POINT ( 'NONE',  ( 6.781371666772297353E-14, 1.153063244860030410E-14, 19.42262039704681698 ) ) ;
#148 = FACE_OUTER_BOUND ( 'NONE', #133, .T. ) ;
#149 = CYLINDRICAL_SURFACE ( 'NONE', #124, 5.905999999999990813 ) ;
#150 = APPROVAL_PERSON_ORGANIZATION ( #27, #11, #8 ) ;
#151 = ORIENTED_EDGE ( 'NONE', *, *, #216, .T. ) ;
#152 = VERTEX_POINT ( 'NONE', #227 ) ;
#153 = CIRCLE ( 'NONE', #109, 4.999999999999985789 ) ;
#154 = EDGE_CURVE ( 'NONE', #47, #47, #153, .T. ) ;
#155 = CARTESIAN_POINT ( 'NONE',  ( 1.745740669421566283E-15, 5.905999999999996142, 0.5000000000000000000 ) ) ;
#156 = CARTESIAN_POINT ( 'NONE',  ( 0.000000000000000000, 0.000000000000000000, 0.000000000000000000 ) ) ;
#157 = ADVANCED_FACE ( 'NONE', ( #132 ), #206, .T. ) ;
#158 = VERTEX_POINT ( 'NONE', #120 ) ;
#159 = CLOSED_SHELL ( 'NONE', ( #164, #107, #130, #92, #157 ) ) ;
#160 = DATE_AND_TIME ( #196, #229 ) ;
#161 = EDGE_LOOP ( 'NONE', ( #144 ) ) ;
#162 = APPROVAL_DATE_TIME ( #127, #11 ) ;
#163 = MANIFOLD_SOLID_BREP ( 'Corps-Déplacer/Copier1[2]', #23 ) ;
#164 = ADVANCED_FACE ( 'NONE', ( #148 ), #135, .T. ) ;
#165 = LOCAL_TIME ( 13, 59, 3.000000000000000000, #139 ) ;
#166 = CARTESIAN_POINT ( 'NONE',  ( 4.608755367272936534E-13, -1.811004003430837835E-14, 132.0000000000000000 ) ) ;
#167 = APPROVAL_ROLE ( '' ) ;
#168 = DIRECTION ( 'NONE',  ( -3.491481338843133355E-15, 1.371972729871846822E-16, -1.000000000000000000 ) ) ;
#169 = DIRECTION ( 'NONE',  ( -2.072788696702757631E-30, 1.000000000000000000, -5.936702778968754188E-16 ) ) ;
#170 = CIRCLE ( 'NONE', #51, 5.905999999999996142 ) ;
#171 = MANIFOLD_SOLID_BREP ( 'Corps-Déplacer/Copier1[1]', #159 ) ;
#172 = CARTESIAN_POINT ( 'NONE',  ( 4.643670180661366731E-13, -1.824723730729556232E-14, 133.0000000000000000 ) ) ;
#173 = FACE_OUTER_BOUND ( 'NONE', #75, .T. ) ;
#174 = PERSON_AND_ORGANIZATION_ROLE ( 'design_owner' ) ;
#175 = ADVANCED_FACE ( 'NONE', ( #182 ), #187, .T. ) ;
#176 = ORGANIZATION ( 'UNSPECIFIED', 'UNSPECIFIED', '' ) ;
#177 = DIRECTION ( 'NONE',  ( 3.491481338843133355E-15, 5.936702778968754188E-16, 1.000000000000000000 ) ) ;
#178 = EDGE_LOOP ( 'NONE', ( #213 ) ) ;
#179 = APPROVAL_DATE_TIME ( #15, #134 ) ;
#180 = CIRCLE ( 'NONE', #188, 5.905999999999999694 ) ;
#181 = DESIGN_CONTEXT ( 'detailed design', #214, 'design' ) ;
#182 = FACE_OUTER_BOUND ( 'NONE', #122, .T. ) ;
#183 = PERSON_AND_ORGANIZATION ( #195, #176 ) ;
#184 = AXIS2_PLACEMENT_3D ( 'NONE', #186, #16, #95 ) ;
#185 = DIRECTION ( 'NONE',  ( -3.491481338843133355E-15, 1.371972729871846822E-16, -1.000000000000000000 ) ) ;
#186 = CARTESIAN_POINT ( 'NONE',  ( 6.781371666772296091E-14, 5.905999999999997030, 19.42262039704681342 ) ) ;
#187 = PLANE ( 'NONE',  #84 ) ;
#188 = AXIS2_PLACEMENT_3D ( 'NONE', #38, #77, #94 ) ;
#189 = CARTESIAN_POINT ( 'NONE',  ( 0.000000000000000000, 0.000000000000000000, 0.000000000000000000 ) ) ;
#190 = CARTESIAN_POINT ( 'NONE',  ( -5.602747847187548156E-30, 5.405999999999994365, -1.604690761155252589E-15 ) ) ;
#191 = PRODUCT_DEFINITION_SHAPE ( 'NONE', 'NONE',  #82 ) ;
#192 = VERTEX_POINT ( 'NONE', #225 ) ;
#193 = DIRECTION ( 'NONE',  ( 2.072788696702757631E-30, -1.000000000000000000, 5.936702778968754188E-16 ) ) ;
#194 = CC_DESIGN_PERSON_AND_ORGANIZATION_ASSIGNMENT ( #53, #76, ( #73 ) ) ;
#195 = PERSON ( 'UNSPECIFIED', 'UNSPECIFIED', 'UNSPECIFIED', ('UNSPECIFIED'), ('UNSPECIFIED'), ('UNSPECIFIED') ) ;
#196 = CALENDAR_DATE ( 2023, 28, 9 ) ;
#197 = CARTESIAN_POINT ( 'NONE',  ( 7.329268197145786943E-14, 4.999999999999984013, 20.99185842870426200 ) ) ;
#198 = ORIENTED_EDGE ( 'NONE', *, *, #72, .T. ) ;
#199 = APPROVAL_STATUS ( 'not_yet_approved' ) ;
#200 = PRODUCT ( '420561', '420561', '', ( #46 ) ) ;
#201 = DATE_AND_TIME ( #58, #22 ) ;
#202 = LOCAL_TIME ( 13, 59, 3.000000000000000000, #34 ) ;
#203 = CARTESIAN_POINT ( 'NONE',  ( 7.329268197145786943E-14, -2.880025731351272149E-15, 20.99185842870426200 ) ) ;
#204 = CALENDAR_DATE ( 2023, 28, 9 ) ;
#205 = DIRECTION ( 'NONE',  ( -3.491481338843133355E-15, 1.371972729871846822E-16, -1.000000000000000000 ) ) ;
#206 = PLANE ( 'NONE',  #184 ) ;
#207 = DIRECTION ( 'NONE',  ( 0.000000000000000000, 1.000000000000000000, 0.000000000000000000 ) ) ;
#208 = DIRECTION ( 'NONE',  ( -4.790217183749224165E-31, -1.000000000000000000, -1.371972729871846822E-16 ) ) ;
#209 =( LENGTH_UNIT ( ) NAMED_UNIT ( * ) SI_UNIT ( .MILLI., .METRE. ) );
#210 = DIRECTION ( 'NONE',  ( 1.000000000000000000, 0.000000000000000000, 0.000000000000000000 ) ) ;
#211 = EDGE_LOOP ( 'NONE', ( #97 ) ) ;
#212 = VERTEX_POINT ( 'NONE', #68 ) ;
#213 = ORIENTED_EDGE ( 'NONE', *, *, #154, .T. ) ;
#214 = APPLICATION_CONTEXT ( 'configuration controlled 3d designs of mechanical parts and assemblies' ) ;
#215 = CC_DESIGN_SECURITY_CLASSIFICATION ( #60, ( #73 ) ) ;
#216 = EDGE_CURVE ( 'NONE', #158, #158, #119, .T. ) ;
#217 = DATE_AND_TIME ( #204, #165 ) ;
#218 = AXIS2_PLACEMENT_3D ( 'NONE', #86, #243, #21 ) ;
#219 = PERSON_AND_ORGANIZATION_ROLE ( 'creator' ) ;
#220 = ADVANCED_FACE ( 'NONE', ( #173 ), #44, .T. ) ;
#221 = ORIENTED_EDGE ( 'NONE', *, *, #143, .F. ) ;
#222 = APPROVAL_STATUS ( 'not_yet_approved' ) ;
#223 = FACE_OUTER_BOUND ( 'NONE', #43, .T. ) ;
#224 = FACE_OUTER_BOUND ( 'NONE', #19, .T. ) ;
#225 = CARTESIAN_POINT ( 'NONE',  ( 4.608755367272936534E-13, 4.999999999999983125, 132.0000000000000000 ) ) ;
#226 = CIRCLE ( 'NONE', #146, 4.000000000000001776 ) ;
#227 = CARTESIAN_POINT ( 'NONE',  ( 6.781371666772297353E-14, 5.905999999999997030, 19.42262039704681698 ) ) ;
#228 = APPROVAL_STATUS ( 'not_yet_approved' ) ;
#229 = LOCAL_TIME ( 13, 59, 3.000000000000000000, #136 ) ;
#230 = CARTESIAN_POINT ( 'NONE',  ( 1.120549569437509631E-29, 1.905314420227174526E-30, 3.209381522310505179E-15 ) ) ;
#231 = CIRCLE ( 'NONE', #74, 5.000000000000000888 ) ;
#232 = PERSON_AND_ORGANIZATION_ROLE ( 'creator' ) ;
#233 = UNCERTAINTY_MEASURE_WITH_UNIT (LENGTH_MEASURE( 1.000000000000000082E-05 ), #209, 'distance_accuracy_value', 'NONE');
#234 = AXIS2_PLACEMENT_3D ( 'NONE', #190, #83, #102 ) ;
#235 = FACE_BOUND ( 'NONE', #241, .T. ) ;
#236 = EDGE_CURVE ( 'NONE', #65, #65, #170, .T. ) ;
#237 = CALENDAR_DATE ( 2023, 28, 9 ) ;
#238 = CARTESIAN_POINT ( 'NONE',  ( 4.608755367272936534E-13, -1.811004003430837835E-14, 132.0000000000000000 ) ) ;
#239 = DIRECTION ( 'NONE',  ( -3.491481338843133355E-15, -5.936702778968754188E-16, -1.000000000000000000 ) ) ;
#240 = ADVANCED_FACE ( 'NONE', ( #6, #121 ), #31, .T. ) ;
#241 = EDGE_LOOP ( 'NONE', ( #116 ) ) ;
#242 = DIRECTION ( 'NONE',  ( 3.491481338843133355E-15, 5.936702778968754188E-16, 1.000000000000000000 ) ) ;
#243 = DIRECTION ( 'NONE',  ( -3.491481338843133355E-15, -5.936702778968754188E-16, -1.000000000000000000 ) ) ;
ENDSEC;
END-ISO-10303-21;
