ISO-10303-21;
HEADER;
FILE_DESCRIPTION (( 'STEP AP203' ),
    '1' );
FILE_NAME ('420560.step',
    '2023-09-28T11:59:02',
    ( '' ),
    ( '' ),
    'SwSTEP 2.0',
    'SolidWorks 2022',
    '' );
FILE_SCHEMA (( 'CONFIG_CONTROL_DESIGN' ));
ENDSEC;

DATA;
#1 = AXIS2_PLACEMENT_3D ( 'NONE', #138, #208, #47 ) ;
#2 = CALENDAR_DATE ( 2023, 28, 9 ) ;
#3 = CC_DESIGN_DATE_AND_TIME_ASSIGNMENT ( #150, #134, ( #40 ) ) ;
#4 = SHAPE_DEFINITION_REPRESENTATION ( #190, #201 ) ;
#5 = CARTESIAN_POINT ( 'NONE',  ( 0.000000000000000000, 0.000000000000000000, 0.000000000000000000 ) ) ;
#6 = AXIS2_PLACEMENT_3D ( 'NONE', #239, #218, #58 ) ;
#7 = CARTESIAN_POINT ( 'NONE',  ( 4.608755367272936534E-13, -1.811004003430837835E-14, 132.0000000000000000 ) ) ;
#8 = DIRECTION ( 'NONE',  ( 0.000000000000000000, 1.000000000000000000, 0.000000000000000000 ) ) ;
#9 = FACE_OUTER_BOUND ( 'NONE', #140, .T. ) ;
#10 = CIRCLE ( 'NONE', #191, 5.255999999999994898 ) ;
#11 = DIRECTION ( 'NONE',  ( 4.790217183749224165E-31, 1.000000000000000000, 1.371972729871846822E-16 ) ) ;
#12 = EDGE_CURVE ( 'NONE', #36, #36, #50, .T. ) ;
#13 = CARTESIAN_POINT ( 'NONE',  ( 6.872083012860619959E-14, 5.755999999999997563, 19.68242801818214716 ) ) ;
#14 = DIRECTION ( 'NONE',  ( -2.034139754663153059E-30, 1.000000000000000000, -5.826007809444986240E-16 ) ) ;
#15 = CARTESIAN_POINT ( 'NONE',  ( 7.329268197145786943E-14, -2.880025731351272149E-15, 20.99185842870426200 ) ) ;
#16 = SECURITY_CLASSIFICATION ( '', '', #46 ) ;
#17 = CARTESIAN_POINT ( 'NONE',  ( 1.745740669421566678E-15, 5.755999999999996675, 0.5000000000000000000 ) ) ;
#18 = DATE_AND_TIME ( #132, #107 ) ;
#19 = CLOSED_SHELL ( 'NONE', ( #78, #81, #118, #237 ) ) ;
#20 = PERSON_AND_ORGANIZATION ( #229, #203 ) ;
#21 = CC_DESIGN_PERSON_AND_ORGANIZATION_ASSIGNMENT ( #117, #187, ( #16 ) ) ;
#22 = CALENDAR_DATE ( 2023, 28, 9 ) ;
#23 = COORDINATED_UNIVERSAL_TIME_OFFSET ( 1, 0, .AHEAD. ) ;
#24 = APPROVAL ( #182, 'UNSPECIFIED' ) ;
#25 = AXIS2_PLACEMENT_3D ( 'NONE', #77, #37, #14 ) ;
#26 = PERSON_AND_ORGANIZATION ( #229, #203 ) ;
#27 = EDGE_LOOP ( 'NONE', ( #44 ) ) ;
#28 = EDGE_LOOP ( 'NONE', ( #133 ) ) ;
#29 = DIRECTION ( 'NONE',  ( -3.491481338843133355E-15, 1.371972729871846822E-16, -1.000000000000000000 ) ) ;
#30 = APPROVAL_PERSON_ORGANIZATION ( #227, #57, #79 ) ;
#31 = CC_DESIGN_PERSON_AND_ORGANIZATION_ASSIGNMENT ( #41, #148, ( #135 ) ) ;
#32 = CARTESIAN_POINT ( 'NONE',  ( 4.608755367272936534E-13, -1.811004003430837835E-14, 132.0000000000000000 ) ) ;
#33 = DIRECTION ( 'NONE',  ( -3.491481338843133355E-15, 1.371972729871846822E-16, -1.000000000000000000 ) ) ;
#34 = EDGE_LOOP ( 'NONE', ( #125 ) ) ;
#35 = UNCERTAINTY_MEASURE_WITH_UNIT (LENGTH_MEASURE( 1.000000000000000082E-05 ), #220, 'distance_accuracy_value', 'NONE');
#36 = VERTEX_POINT ( 'NONE', #13 ) ;
#37 = DIRECTION ( 'NONE',  ( -3.491481338843133355E-15, -5.826007809444986240E-16, -1.000000000000000000 ) ) ;
#38 =( NAMED_UNIT ( * ) PLANE_ANGLE_UNIT ( ) SI_UNIT ( $, .RADIAN. ) );
#39 = CC_DESIGN_APPROVAL ( #57, ( #135 ) ) ;
#40 = PRODUCT_DEFINITION ( 'UNKNOWN', '', #135, #127 ) ;
#41 = PERSON_AND_ORGANIZATION ( #229, #203 ) ;
#42 = APPROVAL ( #80, 'UNSPECIFIED' ) ;
#43 = DATE_TIME_ROLE ( 'classification_date' ) ;
#44 = ORIENTED_EDGE ( 'NONE', *, *, #162, .F. ) ;
#45 = AXIS2_PLACEMENT_3D ( 'NONE', #74, #200, #93 ) ;
#46 = SECURITY_CLASSIFICATION_LEVEL ( 'unclassified' ) ;
#47 = DIRECTION ( 'NONE',  ( 2.034139754663153409E-30, -1.000000000000000000, 5.826007809444986240E-16 ) ) ;
#48 = PRODUCT_RELATED_PRODUCT_CATEGORY ( 'detail', '', ( #183 ) ) ;
#49 = CARTESIAN_POINT ( 'NONE',  ( 6.872083012860621221E-14, 5.755999999999997563, 19.68242801818215071 ) ) ;
#50 = CIRCLE ( 'NONE', #112, 5.755999999999986017 ) ;
#51 = FACE_OUTER_BOUND ( 'NONE', #137, .T. ) ;
#52 = ORIENTED_EDGE ( 'NONE', *, *, #12, .T. ) ;
#53 = ADVANCED_FACE ( 'NONE', ( #9 ), #228, .T. ) ;
#54 = ORIENTED_EDGE ( 'NONE', *, *, #158, .F. ) ;
#55 = DIRECTION ( 'NONE',  ( 0.000000000000000000, 1.000000000000000000, 0.000000000000000000 ) ) ;
#56 = CARTESIAN_POINT ( 'NONE',  ( 6.872083012860619959E-14, -2.700375449861148590E-15, 19.68242801818214716 ) ) ;
#57 = APPROVAL ( #131, 'UNSPECIFIED' ) ;
#58 = DIRECTION ( 'NONE',  ( -2.007571172050629103E-30, 1.000000000000000000, -5.839170838611997686E-16 ) ) ;
#59 = CC_DESIGN_SECURITY_CLASSIFICATION ( #16, ( #135 ) ) ;
#60 = PLANE ( 'NONE',  #25 ) ;
#61 = PERSON_AND_ORGANIZATION_ROLE ( 'design_supplier' ) ;
#62 = PERSON_AND_ORGANIZATION ( #229, #203 ) ;
#63 = EDGE_LOOP ( 'NONE', ( #123 ) ) ;
#64 =( GEOMETRIC_REPRESENTATION_CONTEXT ( 3 ) GLOBAL_UNCERTAINTY_ASSIGNED_CONTEXT ( ( #35 ) ) GLOBAL_UNIT_ASSIGNED_CONTEXT ( ( #220, #38, #178 ) ) REPRESENTATION_CONTEXT ( 'NONE', 'WORKASPACE' ) );
#65 = ORIENTED_EDGE ( 'NONE', *, *, #165, .F. ) ;
#66 = DIRECTION ( 'NONE',  ( -3.491481338843133355E-15, 1.371972729871846822E-16, -1.000000000000000000 ) ) ;
#67 = ADVANCED_FACE ( 'NONE', ( #99, #68 ), #105, .T. ) ;
#68 = FACE_OUTER_BOUND ( 'NONE', #63, .T. ) ;
#69 = DIRECTION ( 'NONE',  ( -2.034139754663152709E-30, 1.000000000000000000, -5.826007809444986240E-16 ) ) ;
#70 = MANIFOLD_SOLID_BREP ( 'Corps-Déplacer/Copier1[2]', #19 ) ;
#71 = AXIS2_PLACEMENT_3D ( 'NONE', #7, #154, #8 ) ;
#72 = DIRECTION ( 'NONE',  ( -3.491481338843133355E-15, 1.371972729871846822E-16, -1.000000000000000000 ) ) ;
#73 = ORIENTED_EDGE ( 'NONE', *, *, #122, .T. ) ;
#74 = CARTESIAN_POINT ( 'NONE',  ( 0.000000000000000000, 0.000000000000000000, 0.000000000000000000 ) ) ;
#75 = CARTESIAN_POINT ( 'NONE',  ( 4.608755367272936534E-13, 4.999999999999983125, 132.0000000000000000 ) ) ;
#76 = CARTESIAN_POINT ( 'NONE',  ( 7.329268197145786943E-14, 4.999999999999984013, 20.99185842870426200 ) ) ;
#77 = CARTESIAN_POINT ( 'NONE',  ( -5.345719275254761916E-30, 5.255999999999994898, -1.531074852322141016E-15 ) ) ;
#78 = ADVANCED_FACE ( 'NONE', ( #102 ), #142, .T. ) ;
#79 = APPROVAL_ROLE ( '' ) ;
#80 = APPROVAL_STATUS ( 'not_yet_approved' ) ;
#81 = ADVANCED_FACE ( 'NONE', ( #235, #209 ), #230, .T. ) ;
#82 = COORDINATED_UNIVERSAL_TIME_OFFSET ( 1, 0, .AHEAD. ) ;
#83 = APPLICATION_CONTEXT ( 'configuration controlled 3d designs of mechanical parts and assemblies' ) ;
#84 = DIRECTION ( 'NONE',  ( -3.491481338843133355E-15, -5.826007809444986240E-16, -1.000000000000000000 ) ) ;
#85 = DIRECTION ( 'NONE',  ( -2.034139754663153059E-30, 1.000000000000000000, -5.826007809444986240E-16 ) ) ;
#86 = FACE_BOUND ( 'NONE', #34, .T. ) ;
#87 = ADVANCED_FACE ( 'NONE', ( #232, #192 ), #120, .T. ) ;
#88 = AXIS2_PLACEMENT_3D ( 'NONE', #104, #193, #159 ) ;
#89 = VERTEX_POINT ( 'NONE', #75 ) ;
#90 = AXIS2_PLACEMENT_3D ( 'NONE', #15, #163, #240 ) ;
#91 = CARTESIAN_POINT ( 'NONE',  ( 4.643670180661366731E-13, -1.824723730729556232E-14, 133.0000000000000000 ) ) ;
#92 = CC_DESIGN_PERSON_AND_ORGANIZATION_ASSIGNMENT ( #202, #181, ( #40 ) ) ;
#93 = DIRECTION ( 'NONE',  ( 1.000000000000000000, 0.000000000000000000, 0.000000000000000000 ) ) ;
#94 = APPROVAL_DATE_TIME ( #18, #42 ) ;
#95 = APPLICATION_PROTOCOL_DEFINITION ( 'international standard', 'config_control_design', 1994, #226 ) ;
#96 = CONICAL_SURFACE ( 'NONE', #1, 5.255999999999994898, 0.7853981633974492782 ) ;
#97 = ORIENTED_EDGE ( 'NONE', *, *, #216, .F. ) ;
#98 = ORIENTED_EDGE ( 'NONE', *, *, #216, .T. ) ;
#99 = FACE_BOUND ( 'NONE', #188, .T. ) ;
#100 = LOCAL_TIME ( 13, 59, 2.000000000000000000, #221 ) ;
#101 = FACE_BOUND ( 'NONE', #28, .T. ) ;
#102 = FACE_OUTER_BOUND ( 'NONE', #124, .T. ) ;
#103 = CC_DESIGN_PERSON_AND_ORGANIZATION_ASSIGNMENT ( #20, #116, ( #183 ) ) ;
#104 = CARTESIAN_POINT ( 'NONE',  ( 6.872083012860621221E-14, 1.146699793427680461E-14, 19.68242801818215071 ) ) ;
#105 = CONICAL_SURFACE ( 'NONE', #153, 5.000000000000000888, 0.7853981633974473908 ) ;
#106 = CARTESIAN_POINT ( 'NONE',  ( 1.368455531567204171E-45, 5.255999999999994898, 0.000000000000000000 ) ) ;
#107 = LOCAL_TIME ( 13, 59, 2.000000000000000000, #113 ) ;
#108 = VERTEX_POINT ( 'NONE', #217 ) ;
#109 = CC_DESIGN_PERSON_AND_ORGANIZATION_ASSIGNMENT ( #111, #61, ( #135 ) ) ;
#110 = CALENDAR_DATE ( 2023, 28, 9 ) ;
#111 = PERSON_AND_ORGANIZATION ( #229, #203 ) ;
#112 = AXIS2_PLACEMENT_3D ( 'NONE', #213, #169, #211 ) ;
#113 = COORDINATED_UNIVERSAL_TIME_OFFSET ( 1, 0, .AHEAD. ) ;
#114 = EDGE_CURVE ( 'NONE', #161, #161, #10, .T. ) ;
#115 = EDGE_LOOP ( 'NONE', ( #172 ) ) ;
#116 = PERSON_AND_ORGANIZATION_ROLE ( 'design_owner' ) ;
#117 = PERSON_AND_ORGANIZATION ( #229, #203 ) ;
#118 = ADVANCED_FACE ( 'NONE', ( #152, #101 ), #96, .T. ) ;
#119 = ORIENTED_EDGE ( 'NONE', *, *, #158, .T. ) ;
#120 = CYLINDRICAL_SURFACE ( 'NONE', #219, 4.999999999999993783 ) ;
#121 = CLOSED_SHELL ( 'NONE', ( #186, #67, #87, #146, #53 ) ) ;
#122 = EDGE_CURVE ( 'NONE', #89, #89, #151, .T. ) ;
#123 = ORIENTED_EDGE ( 'NONE', *, *, #122, .F. ) ;
#124 = EDGE_LOOP ( 'NONE', ( #207 ) ) ;
#125 = ORIENTED_EDGE ( 'NONE', *, *, #162, .T. ) ;
#126 = AXIS2_PLACEMENT_3D ( 'NONE', #155, #33, #173 ) ;
#127 = DESIGN_CONTEXT ( 'detailed design', #226, 'design' ) ;
#128 = FACE_OUTER_BOUND ( 'NONE', #115, .T. ) ;
#129 = DIRECTION ( 'NONE',  ( -4.790217183749224165E-31, -1.000000000000000000, -1.371972729871846822E-16 ) ) ;
#130 = CIRCLE ( 'NONE', #6, 5.755999999999996675 ) ;
#131 = APPROVAL_STATUS ( 'not_yet_approved' ) ;
#132 = CALENDAR_DATE ( 2023, 28, 9 ) ;
#133 = ORIENTED_EDGE ( 'NONE', *, *, #114, .F. ) ;
#134 = DATE_TIME_ROLE ( 'creation_date' ) ;
#135 = PRODUCT_DEFINITION_FORMATION_WITH_SPECIFIED_SOURCE ( 'ANY', '', #183, .NOT_KNOWN. ) ;
#136 = APPROVAL_DATE_TIME ( #185, #24 ) ;
#137 = EDGE_LOOP ( 'NONE', ( #97 ) ) ;
#138 = CARTESIAN_POINT ( 'NONE',  ( 1.069143855050952383E-29, 1.784010809294724325E-30, 3.062149704644282033E-15 ) ) ;
#139 = DIRECTION ( 'NONE',  ( -3.491481338843133355E-15, -5.826007809444986240E-16, -1.000000000000000000 ) ) ;
#140 = EDGE_LOOP ( 'NONE', ( #98 ) ) ;
#141 = CC_DESIGN_APPROVAL ( #42, ( #16 ) ) ;
#142 = PLANE ( 'NONE',  #88 ) ;
#143 = CARTESIAN_POINT ( 'NONE',  ( 0.000000000000000000, 0.000000000000000000, 0.000000000000000000 ) ) ;
#144 = CIRCLE ( 'NONE', #149, 5.756000000000000227 ) ;
#145 = CARTESIAN_POINT ( 'NONE',  ( 4.643670180661366731E-13, 3.999999999999983569, 133.0000000000000000 ) ) ;
#146 = ADVANCED_FACE ( 'NONE', ( #86, #51 ), #170, .T. ) ;
#147 = EDGE_LOOP ( 'NONE', ( #54 ) ) ;
#148 = PERSON_AND_ORGANIZATION_ROLE ( 'creator' ) ;
#149 = AXIS2_PLACEMENT_3D ( 'NONE', #56, #196, #55 ) ;
#150 = DATE_AND_TIME ( #22, #238 ) ;
#151 = CIRCLE ( 'NONE', #71, 5.000000000000000888 ) ;
#152 = FACE_OUTER_BOUND ( 'NONE', #189, .T. ) ;
#153 = AXIS2_PLACEMENT_3D ( 'NONE', #32, #29, #194 ) ;
#154 = DIRECTION ( 'NONE',  ( -3.491481338843133355E-15, 1.371972729871846822E-16, -1.000000000000000000 ) ) ;
#155 = CARTESIAN_POINT ( 'NONE',  ( 6.872083012860619959E-14, -2.700375449861148590E-15, 19.68242801818214716 ) ) ;
#156 = CARTESIAN_POINT ( 'NONE',  ( 4.643670180661366731E-13, -1.824723730729556232E-14, 133.0000000000000000 ) ) ;
#157 = APPROVAL_PERSON_ORGANIZATION ( #26, #42, #225 ) ;
#158 = EDGE_CURVE ( 'NONE', #199, #199, #233, .T. ) ;
#159 = DIRECTION ( 'NONE',  ( 2.034139754663153059E-30, -1.000000000000000000, 5.826007809444986240E-16 ) ) ;
#160 = VERTEX_POINT ( 'NONE', #76 ) ;
#161 = VERTEX_POINT ( 'NONE', #106 ) ;
#162 = EDGE_CURVE ( 'NONE', #160, #160, #241, .T. ) ;
#163 = DIRECTION ( 'NONE',  ( -3.491481338843133355E-15, 1.371972729871846822E-16, -1.000000000000000000 ) ) ;
#164 = APPROVAL_ROLE ( '' ) ;
#165 = EDGE_CURVE ( 'NONE', #180, #180, #130, .T. ) ;
#166 = APPROVAL_DATE_TIME ( #205, #57 ) ;
#167 = CC_DESIGN_APPROVAL ( #24, ( #40 ) ) ;
#168 = CALENDAR_DATE ( 2023, 28, 9 ) ;
#169 = DIRECTION ( 'NONE',  ( -3.491481338843133355E-15, -5.826007809444986240E-16, -1.000000000000000000 ) ) ;
#170 = CONICAL_SURFACE ( 'NONE', #126, 5.756000000000000227, 0.5235987755982928205 ) ;
#171 = DIRECTION ( 'NONE',  ( 4.790217183749224165E-31, 1.000000000000000000, 1.371972729871846822E-16 ) ) ;
#172 = ORIENTED_EDGE ( 'NONE', *, *, #114, .T. ) ;
#173 = DIRECTION ( 'NONE',  ( 0.000000000000000000, 1.000000000000000000, 0.000000000000000000 ) ) ;
#174 = CC_DESIGN_DATE_AND_TIME_ASSIGNMENT ( #243, #43, ( #16 ) ) ;
#175 = DIRECTION ( 'NONE',  ( -3.491481338843133355E-15, 1.371972729871846822E-16, -1.000000000000000000 ) ) ;
#176 = AXIS2_PLACEMENT_3D ( 'NONE', #143, #139, #69 ) ;
#177 = DIRECTION ( 'NONE',  ( 3.491481338843133355E-15, -1.371972729871846822E-16, 1.000000000000000000 ) ) ;
#178 =( NAMED_UNIT ( * ) SI_UNIT ( $, .STERADIAN. ) SOLID_ANGLE_UNIT ( ) );
#179 = LOCAL_TIME ( 13, 59, 2.000000000000000000, #23 ) ;
#180 = VERTEX_POINT ( 'NONE', #17 ) ;
#181 = PERSON_AND_ORGANIZATION_ROLE ( 'creator' ) ;
#182 = APPROVAL_STATUS ( 'not_yet_approved' ) ;
#183 = PRODUCT ( '420560', '420560', '', ( #223 ) ) ;
#184 = COORDINATED_UNIVERSAL_TIME_OFFSET ( 1, 0, .AHEAD. ) ;
#185 = DATE_AND_TIME ( #2, #100 ) ;
#186 = ADVANCED_FACE ( 'NONE', ( #214 ), #197, .T. ) ;
#187 = PERSON_AND_ORGANIZATION_ROLE ( 'classification_officer' ) ;
#188 = EDGE_LOOP ( 'NONE', ( #119 ) ) ;
#189 = EDGE_LOOP ( 'NONE', ( #204 ) ) ;
#190 = PRODUCT_DEFINITION_SHAPE ( 'NONE', 'NONE',  #40 ) ;
#191 = AXIS2_PLACEMENT_3D ( 'NONE', #234, #84, #85 ) ;
#192 = FACE_OUTER_BOUND ( 'NONE', #27, .T. ) ;
#193 = DIRECTION ( 'NONE',  ( 3.491481338843133355E-15, 5.826007809444986240E-16, 1.000000000000000000 ) ) ;
#194 = DIRECTION ( 'NONE',  ( 0.000000000000000000, 1.000000000000000000, 0.000000000000000000 ) ) ;
#195 = AXIS2_PLACEMENT_3D ( 'NONE', #91, #177, #129 ) ;
#196 = DIRECTION ( 'NONE',  ( -3.491481338843133355E-15, 1.371972729871846822E-16, -1.000000000000000000 ) ) ;
#197 = PLANE ( 'NONE',  #195 ) ;
#198 = AXIS2_PLACEMENT_3D ( 'NONE', #49, #175, #11 ) ;
#199 = VERTEX_POINT ( 'NONE', #145 ) ;
#200 = DIRECTION ( 'NONE',  ( 0.000000000000000000, 0.000000000000000000, 1.000000000000000000 ) ) ;
#201 = ADVANCED_BREP_SHAPE_REPRESENTATION ( '420560', ( #231, #70, #45 ), #64 ) ;
#202 = PERSON_AND_ORGANIZATION ( #229, #203 ) ;
#203 = ORGANIZATION ( 'UNSPECIFIED', 'UNSPECIFIED', '' ) ;
#204 = ORIENTED_EDGE ( 'NONE', *, *, #165, .T. ) ;
#205 = DATE_AND_TIME ( #168, #210 ) ;
#206 = APPROVAL_PERSON_ORGANIZATION ( #62, #24, #164 ) ;
#207 = ORIENTED_EDGE ( 'NONE', *, *, #12, .F. ) ;
#208 = DIRECTION ( 'NONE',  ( 3.491481338843133355E-15, 5.826007809444986240E-16, 1.000000000000000000 ) ) ;
#209 = FACE_OUTER_BOUND ( 'NONE', #242, .T. ) ;
#210 = LOCAL_TIME ( 13, 59, 2.000000000000000000, #82 ) ;
#211 = DIRECTION ( 'NONE',  ( -2.141409250187341680E-30, 1.000000000000000000, -6.027531188244653270E-16 ) ) ;
#212 = DIRECTION ( 'NONE',  ( 0.000000000000000000, 1.000000000000000000, 0.000000000000000000 ) ) ;
#213 = CARTESIAN_POINT ( 'NONE',  ( 6.872083012860621221E-14, 1.146699793427680303E-14, 19.68242801818215071 ) ) ;
#214 = FACE_OUTER_BOUND ( 'NONE', #147, .T. ) ;
#215 = AXIS2_PLACEMENT_3D ( 'NONE', #156, #72, #212 ) ;
#216 = EDGE_CURVE ( 'NONE', #108, #108, #144, .T. ) ;
#217 = CARTESIAN_POINT ( 'NONE',  ( 6.872083012860619959E-14, 5.755999999999997563, 19.68242801818214716 ) ) ;
#218 = DIRECTION ( 'NONE',  ( -3.491481338843133355E-15, -5.826007809444986240E-16, -1.000000000000000000 ) ) ;
#219 = AXIS2_PLACEMENT_3D ( 'NONE', #5, #66, #171 ) ;
#220 =( LENGTH_UNIT ( ) NAMED_UNIT ( * ) SI_UNIT ( .MILLI., .METRE. ) );
#221 = COORDINATED_UNIVERSAL_TIME_OFFSET ( 1, 0, .AHEAD. ) ;
#222 = EDGE_LOOP ( 'NONE', ( #52 ) ) ;
#223 = MECHANICAL_CONTEXT ( 'NONE', #83, 'mechanical' ) ;
#224 = EDGE_LOOP ( 'NONE', ( #73 ) ) ;
#225 = APPROVAL_ROLE ( '' ) ;
#226 = APPLICATION_CONTEXT ( 'configuration controlled 3d designs of mechanical parts and assemblies' ) ;
#227 = PERSON_AND_ORGANIZATION ( #229, #203 ) ;
#228 = PLANE ( 'NONE',  #198 ) ;
#229 = PERSON ( 'UNSPECIFIED', 'UNSPECIFIED', 'UNSPECIFIED', ('UNSPECIFIED'), ('UNSPECIFIED'), ('UNSPECIFIED') ) ;
#230 = CYLINDRICAL_SURFACE ( 'NONE', #176, 5.755999999999991346 ) ;
#231 = MANIFOLD_SOLID_BREP ( 'Corps-Déplacer/Copier1[1]', #121 ) ;
#232 = FACE_OUTER_BOUND ( 'NONE', #224, .T. ) ;
#233 = CIRCLE ( 'NONE', #215, 4.000000000000001776 ) ;
#234 = CARTESIAN_POINT ( 'NONE',  ( 1.069143855050952383E-29, 1.784010809294724325E-30, 3.062149704644282033E-15 ) ) ;
#235 = FACE_OUTER_BOUND ( 'NONE', #222, .T. ) ;
#236 = APPLICATION_PROTOCOL_DEFINITION ( 'international standard', 'config_control_design', 1994, #83 ) ;
#237 = ADVANCED_FACE ( 'NONE', ( #128 ), #60, .T. ) ;
#238 = LOCAL_TIME ( 13, 59, 2.000000000000000000, #184 ) ;
#239 = CARTESIAN_POINT ( 'NONE',  ( 1.745740669421578313E-15, 2.913003904722512842E-16, 0.5000000000000033307 ) ) ;
#240 = DIRECTION ( 'NONE',  ( 0.000000000000000000, 1.000000000000000000, 0.000000000000000000 ) ) ;
#241 = CIRCLE ( 'NONE', #90, 4.999999999999985789 ) ;
#242 = EDGE_LOOP ( 'NONE', ( #65 ) ) ;
#243 = DATE_AND_TIME ( #110, #179 ) ;
ENDSEC;
END-ISO-10303-21;
