ISO-10303-21;
HEADER;
FILE_DESCRIPTION (( 'STEP AP203' ),
    '1' );
FILE_NAME ('420559.step',
    '2023-09-28T11:59:01',
    ( '' ),
    ( '' ),
    'SwSTEP 2.0',
    'SolidWorks 2022',
    '' );
FILE_SCHEMA (( 'CONFIG_CONTROL_DESIGN' ));
ENDSEC;

DATA;
#1 = APPLICATION_PROTOCOL_DEFINITION ( 'international standard', 'config_control_design', 1994, #103 ) ;
#2 = EDGE_LOOP ( 'NONE', ( #113 ) ) ;
#3 = APPROVAL_PERSON_ORGANIZATION ( #18, #90, #98 ) ;
#4 = CARTESIAN_POINT ( 'NONE',  ( 4.643670180661366731E-13, -1.824723730729556232E-14, 133.0000000000000000 ) ) ;
#5 = FACE_OUTER_BOUND ( 'NONE', #45, .T. ) ;
#6 = ORIENTED_EDGE ( 'NONE', *, *, #42, .T. ) ;
#7 = ORIENTED_EDGE ( 'NONE', *, *, #178, .T. ) ;
#8 = CARTESIAN_POINT ( 'NONE',  ( 1.745740669421577130E-15, 2.823935246685060003E-16, 0.5000000000000029976 ) ) ;
#9 = DIRECTION ( 'NONE',  ( -3.491481338843133355E-15, 1.371972729871846822E-16, -1.000000000000000000 ) ) ;
#10 = CARTESIAN_POINT ( 'NONE',  ( 7.023268589674495175E-14, 5.505999999999997563, 20.11544072007437478 ) ) ;
#11 = CONICAL_SURFACE ( 'NONE', #73, 5.506000000000000227, 0.5235987755982948189 ) ;
#12 = PLANE ( 'NONE',  #32 ) ;
#13 = ADVANCED_FACE ( 'NONE', ( #80, #39 ), #193, .T. ) ;
#14 = CARTESIAN_POINT ( 'NONE',  ( 1.745740669421566283E-15, 5.505999999999998451, 0.4999999999999998890 ) ) ;
#15 = COORDINATED_UNIVERSAL_TIME_OFFSET ( 1, 0, .AHEAD. ) ;
#16 = LOCAL_TIME ( 13, 59, 1.000000000000000000, #15 ) ;
#17 = PERSON_AND_ORGANIZATION ( #35, #241 ) ;
#18 = PERSON_AND_ORGANIZATION ( #35, #241 ) ;
#19 = CC_DESIGN_PERSON_AND_ORGANIZATION_ASSIGNMENT ( #34, #112, ( #189 ) ) ;
#20 = DIRECTION ( 'NONE',  ( -3.491481338843133355E-15, 1.371972729871846822E-16, -1.000000000000000000 ) ) ;
#21 = EDGE_LOOP ( 'NONE', ( #229 ) ) ;
#22 = EDGE_LOOP ( 'NONE', ( #172 ) ) ;
#23 = ORIENTED_EDGE ( 'NONE', *, *, #65, .F. ) ;
#24 = APPROVAL ( #180, 'UNSPECIFIED' ) ;
#25 = DIRECTION ( 'NONE',  ( -3.491481338843133355E-15, 1.371972729871846822E-16, -1.000000000000000000 ) ) ;
#26 = AXIS2_PLACEMENT_3D ( 'NONE', #102, #101, #151 ) ;
#27 = DIRECTION ( 'NONE',  ( 0.000000000000000000, 1.000000000000000000, 0.000000000000000000 ) ) ;
#28 = EDGE_CURVE ( 'NONE', #88, #88, #240, .T. ) ;
#29 = DIRECTION ( 'NONE',  ( -3.491481338843133355E-15, -5.647870493370085493E-16, -1.000000000000000000 ) ) ;
#30 = VERTEX_POINT ( 'NONE', #14 ) ;
#31 = DIRECTION ( 'NONE',  ( -1.971943443180441340E-30, 1.000000000000000000, -5.647870493370085493E-16 ) ) ;
#32 = AXIS2_PLACEMENT_3D ( 'NONE', #63, #199, #31 ) ;
#33 = DATE_AND_TIME ( #184, #200 ) ;
#34 = PERSON_AND_ORGANIZATION ( #35, #241 ) ;
#35 = PERSON ( 'UNSPECIFIED', 'UNSPECIFIED', 'UNSPECIFIED', ('UNSPECIFIED'), ('UNSPECIFIED'), ('UNSPECIFIED') ) ;
#36 = CALENDAR_DATE ( 2023, 28, 9 ) ;
#37 = CALENDAR_DATE ( 2023, 28, 9 ) ;
#38 = SECURITY_CLASSIFICATION ( '', '', #54 ) ;
#39 = FACE_OUTER_BOUND ( 'NONE', #93, .T. ) ;
#40 = FACE_OUTER_BOUND ( 'NONE', #22, .T. ) ;
#41 = AXIS2_PLACEMENT_3D ( 'NONE', #4, #56, #116 ) ;
#42 = EDGE_CURVE ( 'NONE', #156, #156, #160, .T. ) ;
#43 = EDGE_LOOP ( 'NONE', ( #52 ) ) ;
#44 = PLANE ( 'NONE',  #143 ) ;
#45 = EDGE_LOOP ( 'NONE', ( #149 ) ) ;
#46 = CARTESIAN_POINT ( 'NONE',  ( 7.329268197145786943E-14, 4.999999999999984013, 20.99185842870426200 ) ) ;
#47 = CYLINDRICAL_SURFACE ( 'NONE', #131, 5.505999999999992234 ) ;
#48 = AXIS2_PLACEMENT_3D ( 'NONE', #128, #78, #194 ) ;
#49 = DIRECTION ( 'NONE',  ( -1.971943443180441690E-30, 1.000000000000000000, -5.647870493370085493E-16 ) ) ;
#50 = DATE_AND_TIME ( #37, #86 ) ;
#51 = CALENDAR_DATE ( 2023, 28, 9 ) ;
#52 = ORIENTED_EDGE ( 'NONE', *, *, #28, .F. ) ;
#53 = APPROVAL_ROLE ( '' ) ;
#54 = SECURITY_CLASSIFICATION_LEVEL ( 'unclassified' ) ;
#55 = EDGE_LOOP ( 'NONE', ( #230 ) ) ;
#56 = DIRECTION ( 'NONE',  ( 3.491481338843133355E-15, -1.371972729871846822E-16, 1.000000000000000000 ) ) ;
#57 = DIRECTION ( 'NONE',  ( 0.000000000000000000, 1.000000000000000000, 0.000000000000000000 ) ) ;
#58 = CIRCLE ( 'NONE', #168, 5.000000000000000888 ) ;
#59 = DIRECTION ( 'NONE',  ( -3.491481338843133355E-15, -5.647870493370085493E-16, -1.000000000000000000 ) ) ;
#60 = EDGE_LOOP ( 'NONE', ( #7 ) ) ;
#61 = MANIFOLD_SOLID_BREP ( 'Corps-Déplacer/Copier1[2]', #208 ) ;
#62 = DIRECTION ( 'NONE',  ( -1.958809968864606682E-30, 1.000000000000000000, -5.710472757370075769E-16 ) ) ;
#63 = CARTESIAN_POINT ( 'NONE',  ( -4.935774438280643066E-30, 5.005999999999997563, -1.413661984490531753E-15 ) ) ;
#64 = FACE_OUTER_BOUND ( 'NONE', #115, .T. ) ;
#65 = EDGE_CURVE ( 'NONE', #119, #119, #182, .T. ) ;
#66 = AXIS2_PLACEMENT_3D ( 'NONE', #8, #85, #62 ) ;
#67 = DIRECTION ( 'NONE',  ( 0.000000000000000000, 1.000000000000000000, 0.000000000000000000 ) ) ;
#68 = CLOSED_SHELL ( 'NONE', ( #83, #111, #13, #118, #123 ) ) ;
#69 =( GEOMETRIC_REPRESENTATION_CONTEXT ( 3 ) GLOBAL_UNCERTAINTY_ASSIGNED_CONTEXT ( ( #135 ) ) GLOBAL_UNIT_ASSIGNED_CONTEXT ( ( #122, #228, #95 ) ) REPRESENTATION_CONTEXT ( 'NONE', 'WORKASPACE' ) );
#70 = ADVANCED_FACE ( 'NONE', ( #5 ), #44, .T. ) ;
#71 = PERSON_AND_ORGANIZATION_ROLE ( 'classification_officer' ) ;
#72 = PRODUCT_DEFINITION_SHAPE ( 'NONE', 'NONE',  #87 ) ;
#73 = AXIS2_PLACEMENT_3D ( 'NONE', #198, #120, #67 ) ;
#74 = CARTESIAN_POINT ( 'NONE',  ( 0.000000000000000000, 0.000000000000000000, 0.000000000000000000 ) ) ;
#75 = COORDINATED_UNIVERSAL_TIME_OFFSET ( 1, 0, .AHEAD. ) ;
#76 = DIRECTION ( 'NONE',  ( -1.971943443180441340E-30, 1.000000000000000000, -5.647870493370085493E-16 ) ) ;
#77 = AXIS2_PLACEMENT_3D ( 'NONE', #233, #59, #76 ) ;
#78 = DIRECTION ( 'NONE',  ( 3.491481338843133355E-15, 5.647870493370085493E-16, 1.000000000000000000 ) ) ;
#79 = CC_DESIGN_PERSON_AND_ORGANIZATION_ASSIGNMENT ( #166, #185, ( #191 ) ) ;
#80 = FACE_OUTER_BOUND ( 'NONE', #60, .T. ) ;
#81 = CONICAL_SURFACE ( 'NONE', #48, 5.005999999999997563, 0.7853981633974492782 ) ;
#82 = CIRCLE ( 'NONE', #66, 5.505999999999998451 ) ;
#83 = ADVANCED_FACE ( 'NONE', ( #231 ), #214, .T. ) ;
#84 = ORIENTED_EDGE ( 'NONE', *, *, #124, .T. ) ;
#85 = DIRECTION ( 'NONE',  ( -3.491481338843133355E-15, -5.647870493370085493E-16, -1.000000000000000000 ) ) ;
#86 = LOCAL_TIME ( 13, 59, 1.000000000000000000, #164 ) ;
#87 = PRODUCT_DEFINITION ( 'UNKNOWN', '', #191, #218 ) ;
#88 = VERTEX_POINT ( 'NONE', #219 ) ;
#89 = VERTEX_POINT ( 'NONE', #237 ) ;
#90 = APPROVAL ( #140, 'UNSPECIFIED' ) ;
#91 = COORDINATED_UNIVERSAL_TIME_OFFSET ( 1, 0, .AHEAD. ) ;
#92 = CC_DESIGN_APPROVAL ( #141, ( #191 ) ) ;
#93 = EDGE_LOOP ( 'NONE', ( #215 ) ) ;
#94 = COORDINATED_UNIVERSAL_TIME_OFFSET ( 1, 0, .AHEAD. ) ;
#95 =( NAMED_UNIT ( * ) SI_UNIT ( $, .STERADIAN. ) SOLID_ANGLE_UNIT ( ) );
#96 = PERSON_AND_ORGANIZATION ( #35, #241 ) ;
#97 = CC_DESIGN_SECURITY_CLASSIFICATION ( #38, ( #191 ) ) ;
#98 = APPROVAL_ROLE ( '' ) ;
#99 = FACE_BOUND ( 'NONE', #167, .T. ) ;
#100 = APPROVAL_PERSON_ORGANIZATION ( #17, #24, #53 ) ;
#101 = DIRECTION ( 'NONE',  ( -3.491481338843133355E-15, 1.371972729871846822E-16, -1.000000000000000000 ) ) ;
#102 = CARTESIAN_POINT ( 'NONE',  ( 4.643670180661366731E-13, -1.824723730729556232E-14, 133.0000000000000000 ) ) ;
#103 = APPLICATION_CONTEXT ( 'configuration controlled 3d designs of mechanical parts and assemblies' ) ;
#104 = FACE_BOUND ( 'NONE', #117, .T. ) ;
#105 = VERTEX_POINT ( 'NONE', #176 ) ;
#106 = CARTESIAN_POINT ( 'NONE',  ( 7.023268589674496437E-14, 1.136094041040431754E-14, 20.11544072007437833 ) ) ;
#107 = ADVANCED_FACE ( 'NONE', ( #129, #99 ), #81, .T. ) ;
#108 = DATE_AND_TIME ( #36, #174 ) ;
#109 = PERSON_AND_ORGANIZATION_ROLE ( 'creator' ) ;
#110 = APPROVAL_STATUS ( 'not_yet_approved' ) ;
#111 = ADVANCED_FACE ( 'NONE', ( #212, #40 ), #226, .T. ) ;
#112 = PERSON_AND_ORGANIZATION_ROLE ( 'design_owner' ) ;
#113 = ORIENTED_EDGE ( 'NONE', *, *, #124, .F. ) ;
#114 = CARTESIAN_POINT ( 'NONE',  ( 4.608755367272936534E-13, -1.811004003430837835E-14, 132.0000000000000000 ) ) ;
#115 = EDGE_LOOP ( 'NONE', ( #213 ) ) ;
#116 = DIRECTION ( 'NONE',  ( -4.790217183749224165E-31, -1.000000000000000000, -1.371972729871846822E-16 ) ) ;
#117 = EDGE_LOOP ( 'NONE', ( #6 ) ) ;
#118 = ADVANCED_FACE ( 'NONE', ( #104, #220 ), #11, .T. ) ;
#119 = VERTEX_POINT ( 'NONE', #157 ) ;
#120 = DIRECTION ( 'NONE',  ( -3.491481338843133355E-15, 1.371972729871846822E-16, -1.000000000000000000 ) ) ;
#121 = APPROVAL_PERSON_ORGANIZATION ( #162, #141, #223 ) ;
#122 =( LENGTH_UNIT ( ) NAMED_UNIT ( * ) SI_UNIT ( .MILLI., .METRE. ) );
#123 = ADVANCED_FACE ( 'NONE', ( #201 ), #175, .T. ) ;
#124 = EDGE_CURVE ( 'NONE', #30, #30, #82, .T. ) ;
#125 = DATE_AND_TIME ( #139, #16 ) ;
#126 = PERSON_AND_ORGANIZATION ( #35, #241 ) ;
#127 = AXIS2_PLACEMENT_3D ( 'NONE', #133, #20, #173 ) ;
#128 = CARTESIAN_POINT ( 'NONE',  ( 9.871548876561286133E-30, 1.596835961960614874E-30, 2.827323968981063507E-15 ) ) ;
#129 = FACE_OUTER_BOUND ( 'NONE', #148, .T. ) ;
#130 = ORIENTED_EDGE ( 'NONE', *, *, #28, .T. ) ;
#131 = AXIS2_PLACEMENT_3D ( 'NONE', #235, #216, #49 ) ;
#132 = DIRECTION ( 'NONE',  ( 1.971943443180441340E-30, -1.000000000000000000, 5.647870493370085493E-16 ) ) ;
#133 = CARTESIAN_POINT ( 'NONE',  ( 0.000000000000000000, 0.000000000000000000, 0.000000000000000000 ) ) ;
#134 = CARTESIAN_POINT ( 'NONE',  ( 7.023268589674496437E-14, -2.759783611729575356E-15, 20.11544072007437833 ) ) ;
#135 = UNCERTAINTY_MEASURE_WITH_UNIT (LENGTH_MEASURE( 1.000000000000000082E-05 ), #122, 'distance_accuracy_value', 'NONE');
#136 = FACE_OUTER_BOUND ( 'NONE', #55, .T. ) ;
#137 = CIRCLE ( 'NONE', #209, 5.506000000000000227 ) ;
#138 = DIRECTION ( 'NONE',  ( -3.491481338843133355E-15, 1.371972729871846822E-16, -1.000000000000000000 ) ) ;
#139 = CALENDAR_DATE ( 2023, 28, 9 ) ;
#140 = APPROVAL_STATUS ( 'not_yet_approved' ) ;
#141 = APPROVAL ( #110, 'UNSPECIFIED' ) ;
#142 = PERSON_AND_ORGANIZATION_ROLE ( 'creator' ) ;
#143 = AXIS2_PLACEMENT_3D ( 'NONE', #147, #234, #132 ) ;
#144 = MECHANICAL_CONTEXT ( 'NONE', #153, 'mechanical' ) ;
#145 = MANIFOLD_SOLID_BREP ( 'Corps-Déplacer/Copier1[1]', #68 ) ;
#146 = DATE_AND_TIME ( #51, #225 ) ;
#147 = CARTESIAN_POINT ( 'NONE',  ( 7.023268589674495175E-14, 1.136094041040431754E-14, 20.11544072007437478 ) ) ;
#148 = EDGE_LOOP ( 'NONE', ( #84 ) ) ;
#149 = ORIENTED_EDGE ( 'NONE', *, *, #190, .F. ) ;
#150 = ADVANCED_FACE ( 'NONE', ( #64, #155 ), #47, .T. ) ;
#151 = DIRECTION ( 'NONE',  ( 0.000000000000000000, 1.000000000000000000, 0.000000000000000000 ) ) ;
#152 = EDGE_LOOP ( 'NONE', ( #130 ) ) ;
#153 = APPLICATION_CONTEXT ( 'configuration controlled 3d designs of mechanical parts and assemblies' ) ;
#154 = PRODUCT_RELATED_PRODUCT_CATEGORY ( 'detail', '', ( #189 ) ) ;
#155 = FACE_OUTER_BOUND ( 'NONE', #2, .T. ) ;
#156 = VERTEX_POINT ( 'NONE', #46 ) ;
#157 = CARTESIAN_POINT ( 'NONE',  ( 1.368455531567204171E-45, 5.005999999999997563, 0.000000000000000000 ) ) ;
#158 = ADVANCED_FACE ( 'NONE', ( #136 ), #12, .T. ) ;
#159 = VERTEX_POINT ( 'NONE', #238 ) ;
#160 = CIRCLE ( 'NONE', #196, 4.999999999999985789 ) ;
#161 = APPROVAL_DATE_TIME ( #125, #141 ) ;
#162 = PERSON_AND_ORGANIZATION ( #35, #241 ) ;
#163 = CC_DESIGN_PERSON_AND_ORGANIZATION_ASSIGNMENT ( #126, #71, ( #38 ) ) ;
#164 = COORDINATED_UNIVERSAL_TIME_OFFSET ( 1, 0, .AHEAD. ) ;
#165 = CIRCLE ( 'NONE', #181, 5.505999999999986905 ) ;
#166 = PERSON_AND_ORGANIZATION ( #35, #241 ) ;
#167 = EDGE_LOOP ( 'NONE', ( #23 ) ) ;
#168 = AXIS2_PLACEMENT_3D ( 'NONE', #195, #179, #221 ) ;
#169 = DIRECTION ( 'NONE',  ( -3.491481338843133355E-15, 1.371972729871846822E-16, -1.000000000000000000 ) ) ;
#170 = CARTESIAN_POINT ( 'NONE',  ( 7.329268197145786943E-14, -2.880025731351272149E-15, 20.99185842870426200 ) ) ;
#171 = CC_DESIGN_PERSON_AND_ORGANIZATION_ASSIGNMENT ( #96, #142, ( #87 ) ) ;
#172 = ORIENTED_EDGE ( 'NONE', *, *, #178, .F. ) ;
#173 = DIRECTION ( 'NONE',  ( 4.790217183749224165E-31, 1.000000000000000000, 1.371972729871846822E-16 ) ) ;
#174 = LOCAL_TIME ( 13, 59, 1.000000000000000000, #91 ) ;
#175 = PLANE ( 'NONE',  #224 ) ;
#176 = CARTESIAN_POINT ( 'NONE',  ( 4.608755367272936534E-13, 4.999999999999983125, 132.0000000000000000 ) ) ;
#177 = DIRECTION ( 'NONE',  ( -2.238639964416697755E-30, 1.000000000000000000, -6.301211318477337771E-16 ) ) ;
#178 = EDGE_CURVE ( 'NONE', #105, #105, #58, .T. ) ;
#179 = DIRECTION ( 'NONE',  ( -3.491481338843133355E-15, 1.371972729871846822E-16, -1.000000000000000000 ) ) ;
#180 = APPROVAL_STATUS ( 'not_yet_approved' ) ;
#181 = AXIS2_PLACEMENT_3D ( 'NONE', #106, #29, #177 ) ;
#182 = CIRCLE ( 'NONE', #77, 5.005999999999997563 ) ;
#183 = DIRECTION ( 'NONE',  ( 1.000000000000000000, 0.000000000000000000, 0.000000000000000000 ) ) ;
#184 = CALENDAR_DATE ( 2023, 28, 9 ) ;
#185 = PERSON_AND_ORGANIZATION_ROLE ( 'design_supplier' ) ;
#186 = AXIS2_PLACEMENT_3D ( 'NONE', #114, #25, #57 ) ;
#187 = DATE_TIME_ROLE ( 'classification_date' ) ;
#188 = DIRECTION ( 'NONE',  ( 0.000000000000000000, 1.000000000000000000, 0.000000000000000000 ) ) ;
#189 = PRODUCT ( '420559', '420559', '', ( #144 ) ) ;
#190 = EDGE_CURVE ( 'NONE', #89, #89, #165, .T. ) ;
#191 = PRODUCT_DEFINITION_FORMATION_WITH_SPECIFIED_SOURCE ( 'ANY', '', #189, .NOT_KNOWN. ) ;
#192 = EDGE_LOOP ( 'NONE', ( #210 ) ) ;
#193 = CYLINDRICAL_SURFACE ( 'NONE', #127, 4.999999999999993783 ) ;
#194 = DIRECTION ( 'NONE',  ( 1.971943443180440989E-30, -1.000000000000000000, 5.647870493370085493E-16 ) ) ;
#195 = CARTESIAN_POINT ( 'NONE',  ( 4.608755367272936534E-13, -1.811004003430837835E-14, 132.0000000000000000 ) ) ;
#196 = AXIS2_PLACEMENT_3D ( 'NONE', #170, #169, #188 ) ;
#197 = ADVANCED_BREP_SHAPE_REPRESENTATION ( '420559', ( #145, #61, #232 ), #69 ) ;
#198 = CARTESIAN_POINT ( 'NONE',  ( 7.023268589674496437E-14, -2.759783611729575356E-15, 20.11544072007437833 ) ) ;
#199 = DIRECTION ( 'NONE',  ( -3.491481338843133355E-15, -5.647870493370085493E-16, -1.000000000000000000 ) ) ;
#200 = LOCAL_TIME ( 13, 59, 1.000000000000000000, #94 ) ;
#201 = FACE_OUTER_BOUND ( 'NONE', #21, .T. ) ;
#202 = EDGE_CURVE ( 'NONE', #159, #159, #137, .T. ) ;
#203 = SHAPE_DEFINITION_REPRESENTATION ( #72, #197 ) ;
#204 = DIRECTION ( 'NONE',  ( 0.000000000000000000, 0.000000000000000000, 1.000000000000000000 ) ) ;
#205 = APPROVAL_DATE_TIME ( #33, #24 ) ;
#206 = APPLICATION_PROTOCOL_DEFINITION ( 'international standard', 'config_control_design', 1994, #153 ) ;
#207 = CC_DESIGN_PERSON_AND_ORGANIZATION_ASSIGNMENT ( #243, #109, ( #191 ) ) ;
#208 = CLOSED_SHELL ( 'NONE', ( #70, #150, #107, #158 ) ) ;
#209 = AXIS2_PLACEMENT_3D ( 'NONE', #134, #9, #27 ) ;
#210 = ORIENTED_EDGE ( 'NONE', *, *, #202, .F. ) ;
#211 = CC_DESIGN_DATE_AND_TIME_ASSIGNMENT ( #50, #187, ( #38 ) ) ;
#212 = FACE_BOUND ( 'NONE', #152, .T. ) ;
#213 = ORIENTED_EDGE ( 'NONE', *, *, #190, .T. ) ;
#214 = PLANE ( 'NONE',  #41 ) ;
#215 = ORIENTED_EDGE ( 'NONE', *, *, #42, .F. ) ;
#216 = DIRECTION ( 'NONE',  ( -3.491481338843133355E-15, -5.647870493370085493E-16, -1.000000000000000000 ) ) ;
#217 = CC_DESIGN_APPROVAL ( #24, ( #87 ) ) ;
#218 = DESIGN_CONTEXT ( 'detailed design', #103, 'design' ) ;
#219 = CARTESIAN_POINT ( 'NONE',  ( 4.643670180661366731E-13, 3.999999999999983569, 133.0000000000000000 ) ) ;
#220 = FACE_OUTER_BOUND ( 'NONE', #192, .T. ) ;
#221 = DIRECTION ( 'NONE',  ( 0.000000000000000000, 1.000000000000000000, 0.000000000000000000 ) ) ;
#222 = DIRECTION ( 'NONE',  ( 4.790217183749224165E-31, 1.000000000000000000, 1.371972729871846822E-16 ) ) ;
#223 = APPROVAL_ROLE ( '' ) ;
#224 = AXIS2_PLACEMENT_3D ( 'NONE', #10, #138, #222 ) ;
#225 = LOCAL_TIME ( 13, 59, 1.000000000000000000, #75 ) ;
#226 = CONICAL_SURFACE ( 'NONE', #186, 5.000000000000000888, 0.7853981633974473908 ) ;
#227 = DATE_TIME_ROLE ( 'creation_date' ) ;
#228 =( NAMED_UNIT ( * ) PLANE_ANGLE_UNIT ( ) SI_UNIT ( $, .RADIAN. ) );
#229 = ORIENTED_EDGE ( 'NONE', *, *, #202, .T. ) ;
#230 = ORIENTED_EDGE ( 'NONE', *, *, #65, .T. ) ;
#231 = FACE_OUTER_BOUND ( 'NONE', #43, .T. ) ;
#232 = AXIS2_PLACEMENT_3D ( 'NONE', #74, #204, #183 ) ;
#233 = CARTESIAN_POINT ( 'NONE',  ( 9.871548876561286133E-30, 1.596835961960614874E-30, 2.827323968981063507E-15 ) ) ;
#234 = DIRECTION ( 'NONE',  ( 3.491481338843133355E-15, 5.647870493370085493E-16, 1.000000000000000000 ) ) ;
#235 = CARTESIAN_POINT ( 'NONE',  ( 0.000000000000000000, 0.000000000000000000, 0.000000000000000000 ) ) ;
#236 = CC_DESIGN_APPROVAL ( #90, ( #38 ) ) ;
#237 = CARTESIAN_POINT ( 'NONE',  ( 7.023268589674495175E-14, 5.505999999999997563, 20.11544072007437478 ) ) ;
#238 = CARTESIAN_POINT ( 'NONE',  ( 7.023268589674496437E-14, 5.505999999999997563, 20.11544072007437833 ) ) ;
#239 = CC_DESIGN_DATE_AND_TIME_ASSIGNMENT ( #108, #227, ( #87 ) ) ;
#240 = CIRCLE ( 'NONE', #26, 4.000000000000001776 ) ;
#241 = ORGANIZATION ( 'UNSPECIFIED', 'UNSPECIFIED', '' ) ;
#242 = APPROVAL_DATE_TIME ( #146, #90 ) ;
#243 = PERSON_AND_ORGANIZATION ( #35, #241 ) ;
ENDSEC;
END-ISO-10303-21;
