ISO-10303-21;
HEADER;
FILE_DESCRIPTION (( 'STEP AP203' ),
    '1' );
FILE_NAME ('420558.step',
    '2023-09-28T11:59:01',
    ( '' ),
    ( '' ),
    'SwSTEP 2.0',
    'SolidWorks 2022',
    '' );
FILE_SCHEMA (( 'CONFIG_CONTROL_DESIGN' ));
ENDSEC;

DATA;
#1 = CC_DESIGN_APPROVAL ( #194, ( #143 ) ) ;
#2 = EDGE_LOOP ( 'NONE', ( #132 ) ) ;
#3 = ORIENTED_EDGE ( 'NONE', *, *, #220, .T. ) ;
#4 = CARTESIAN_POINT ( 'NONE',  ( 7.144217051125596610E-14, -2.807310141224315901E-15, 20.46185088158815546 ) ) ;
#5 = DIRECTION ( 'NONE',  ( 4.790217183749224165E-31, 1.000000000000000000, 1.371972729871846822E-16 ) ) ;
#6 = PLANE ( 'NONE',  #49 ) ;
#7 = FACE_OUTER_BOUND ( 'NONE', #131, .T. ) ;
#8 = AXIS2_PLACEMENT_3D ( 'NONE', #171, #112, #223 ) ;
#9 = CC_DESIGN_SECURITY_CLASSIFICATION ( #54, ( #139 ) ) ;
#10 = VERTEX_POINT ( 'NONE', #84 ) ;
#11 = DIRECTION ( 'NONE',  ( 0.000000000000000000, 0.000000000000000000, 1.000000000000000000 ) ) ;
#12 = APPROVAL_ROLE ( '' ) ;
#13 = CIRCLE ( 'NONE', #227, 4.805999999999996497 ) ;
#14 = AXIS2_PLACEMENT_3D ( 'NONE', #98, #229, #119 ) ;
#15 = PERSON_AND_ORGANIZATION ( #102, #22 ) ;
#16 = ORIENTED_EDGE ( 'NONE', *, *, #236, .T. ) ;
#17 = DIRECTION ( 'NONE',  ( -3.491481338843133355E-15, -5.510789056454665751E-16, -1.000000000000000000 ) ) ;
#18 = CIRCLE ( 'NONE', #8, 4.000000000000001776 ) ;
#19 = PLANE ( 'NONE',  #122 ) ;
#20 = FACE_OUTER_BOUND ( 'NONE', #72, .T. ) ;
#21 = CARTESIAN_POINT ( 'NONE',  ( 7.144217051125596610E-14, 1.127609439130632662E-14, 20.46185088158815546 ) ) ;
#22 = ORGANIZATION ( 'UNSPECIFIED', 'UNSPECIFIED', '' ) ;
#23 = EDGE_CURVE ( 'NONE', #45, #45, #13, .T. ) ;
#24 = CARTESIAN_POINT ( 'NONE',  ( 0.000000000000000000, 0.000000000000000000, 0.000000000000000000 ) ) ;
#25 = CARTESIAN_POINT ( 'NONE',  ( 7.329268197145786943E-14, -2.880025731351272149E-15, 20.99185842870426200 ) ) ;
#26 = CARTESIAN_POINT ( 'NONE',  ( 7.144217051125595348E-14, 5.305999999999997385, 20.46185088158815191 ) ) ;
#27 = PRODUCT_RELATED_PRODUCT_CATEGORY ( 'detail', '', ( #187 ) ) ;
#28 = PERSON_AND_ORGANIZATION ( #102, #22 ) ;
#29 = APPROVAL_STATUS ( 'not_yet_approved' ) ;
#30 = PERSON_AND_ORGANIZATION_ROLE ( 'design_supplier' ) ;
#31 =( NAMED_UNIT ( * ) SI_UNIT ( $, .STERADIAN. ) SOLID_ANGLE_UNIT ( ) );
#32 = APPROVAL_PERSON_ORGANIZATION ( #28, #103, #12 ) ;
#33 = DATE_TIME_ROLE ( 'classification_date' ) ;
#34 = APPROVAL_DATE_TIME ( #108, #90 ) ;
#35 = ADVANCED_FACE ( 'NONE', ( #75, #73 ), #142, .T. ) ;
#36 = DIRECTION ( 'NONE',  ( 3.491481338843133355E-15, 5.510789056454665751E-16, 1.000000000000000000 ) ) ;
#37 = EDGE_CURVE ( 'NONE', #96, #96, #18, .T. ) ;
#38 = EDGE_LOOP ( 'NONE', ( #41 ) ) ;
#39 = EDGE_LOOP ( 'NONE', ( #3 ) ) ;
#40 = CONICAL_SURFACE ( 'NONE', #186, 5.306000000000000050, 0.5235987755982950409 ) ;
#41 = ORIENTED_EDGE ( 'NONE', *, *, #220, .F. ) ;
#42 = PLANE ( 'NONE',  #107 ) ;
#43 = DIRECTION ( 'NONE',  ( -3.491481338843133355E-15, 1.371972729871846822E-16, -1.000000000000000000 ) ) ;
#44 = CONICAL_SURFACE ( 'NONE', #145, 5.000000000000000888, 0.7853981633974473908 ) ;
#45 = VERTEX_POINT ( 'NONE', #118 ) ;
#46 = DIRECTION ( 'NONE',  ( -3.491481338843133355E-15, -5.510789056454665751E-16, -1.000000000000000000 ) ) ;
#47 = DIRECTION ( 'NONE',  ( -1.924081715291242525E-30, 1.000000000000000000, -5.510789056454665751E-16 ) ) ;
#48 = CIRCLE ( 'NONE', #175, 4.999999999999985789 ) ;
#49 = AXIS2_PLACEMENT_3D ( 'NONE', #230, #159, #177 ) ;
#50 = MECHANICAL_CONTEXT ( 'NONE', #130, 'mechanical' ) ;
#51 = APPROVAL_STATUS ( 'not_yet_approved' ) ;
#52 = APPROVAL_STATUS ( 'not_yet_approved' ) ;
#53 = DATE_AND_TIME ( #202, #232 ) ;
#54 = SECURITY_CLASSIFICATION ( '', '', #144 ) ;
#55 = COORDINATED_UNIVERSAL_TIME_OFFSET ( 1, 0, .AHEAD. ) ;
#56 = AXIS2_PLACEMENT_3D ( 'NONE', #71, #11, #67 ) ;
#57 = ORIENTED_EDGE ( 'NONE', *, *, #198, .F. ) ;
#58 = ADVANCED_FACE ( 'NONE', ( #154 ), #19, .T. ) ;
#59 = ORIENTED_EDGE ( 'NONE', *, *, #158, .T. ) ;
#60 = APPROVAL_PERSON_ORGANIZATION ( #106, #194, #217 ) ;
#61 = DIRECTION ( 'NONE',  ( 0.000000000000000000, 1.000000000000000000, 0.000000000000000000 ) ) ;
#62 = CC_DESIGN_PERSON_AND_ORGANIZATION_ASSIGNMENT ( #70, #30, ( #139 ) ) ;
#63 = DIRECTION ( 'NONE',  ( 0.000000000000000000, 1.000000000000000000, 0.000000000000000000 ) ) ;
#64 = DIRECTION ( 'NONE',  ( -3.491481338843133355E-15, 1.371972729871846822E-16, -1.000000000000000000 ) ) ;
#65 = VERTEX_POINT ( 'NONE', #215 ) ;
#66 = DIRECTION ( 'NONE',  ( 0.000000000000000000, 1.000000000000000000, 0.000000000000000000 ) ) ;
#67 = DIRECTION ( 'NONE',  ( 1.000000000000000000, 0.000000000000000000, 0.000000000000000000 ) ) ;
#68 =( GEOMETRIC_REPRESENTATION_CONTEXT ( 3 ) GLOBAL_UNCERTAINTY_ASSIGNED_CONTEXT ( ( #79 ) ) GLOBAL_UNIT_ASSIGNED_CONTEXT ( ( #86, #101, #31 ) ) REPRESENTATION_CONTEXT ( 'NONE', 'WORKASPACE' ) );
#69 = CARTESIAN_POINT ( 'NONE',  ( 7.144217051125596610E-14, 5.305999999999997385, 20.46185088158815546 ) ) ;
#70 = PERSON_AND_ORGANIZATION ( #102, #22 ) ;
#71 = CARTESIAN_POINT ( 'NONE',  ( 0.000000000000000000, 0.000000000000000000, 0.000000000000000000 ) ) ;
#72 = EDGE_LOOP ( 'NONE', ( #16 ) ) ;
#73 = FACE_BOUND ( 'NONE', #170, .T. ) ;
#74 = PRODUCT_DEFINITION_SHAPE ( 'NONE', 'NONE',  #143 ) ;
#75 = FACE_OUTER_BOUND ( 'NONE', #39, .T. ) ;
#76 = EDGE_LOOP ( 'NONE', ( #146 ) ) ;
#77 = ADVANCED_FACE ( 'NONE', ( #226, #7 ), #40, .T. ) ;
#78 = CYLINDRICAL_SURFACE ( 'NONE', #126, 5.305999999999992056 ) ;
#79 = UNCERTAINTY_MEASURE_WITH_UNIT (LENGTH_MEASURE( 1.000000000000000082E-05 ), #86, 'distance_accuracy_value', 'NONE');
#80 = DIRECTION ( 'NONE',  ( 3.491481338843133355E-15, -1.371972729871846822E-16, 1.000000000000000000 ) ) ;
#81 = DIRECTION ( 'NONE',  ( -3.491481338843133355E-15, 1.371972729871846822E-16, -1.000000000000000000 ) ) ;
#82 = AXIS2_PLACEMENT_3D ( 'NONE', #205, #36, #149 ) ;
#83 = APPROVAL_PERSON_ORGANIZATION ( #167, #90, #104 ) ;
#84 = CARTESIAN_POINT ( 'NONE',  ( 1.745740669421565889E-15, 5.305999999999998273, 0.4999999999999998890 ) ) ;
#85 = PERSON_AND_ORGANIZATION ( #102, #22 ) ;
#86 =( LENGTH_UNIT ( ) NAMED_UNIT ( * ) SI_UNIT ( .MILLI., .METRE. ) );
#87 = DESIGN_CONTEXT ( 'detailed design', #135, 'design' ) ;
#88 = CLOSED_SHELL ( 'NONE', ( #152, #190, #35, #58 ) ) ;
#89 = DATE_AND_TIME ( #165, #213 ) ;
#90 = APPROVAL ( #29, 'UNSPECIFIED' ) ;
#91 = PERSON_AND_ORGANIZATION_ROLE ( 'classification_officer' ) ;
#92 = AXIS2_PLACEMENT_3D ( 'NONE', #214, #43, #63 ) ;
#93 = ORIENTED_EDGE ( 'NONE', *, *, #23, .T. ) ;
#94 = DIRECTION ( 'NONE',  ( -3.491481338843133355E-15, -5.510789056454665751E-16, -1.000000000000000000 ) ) ;
#95 = CARTESIAN_POINT ( 'NONE',  ( 0.000000000000000000, 0.000000000000000000, 0.000000000000000000 ) ) ;
#96 = VERTEX_POINT ( 'NONE', #179 ) ;
#97 = FACE_OUTER_BOUND ( 'NONE', #208, .T. ) ;
#98 = CARTESIAN_POINT ( 'NONE',  ( 1.745740669421576341E-15, 2.755394528227348653E-16, 0.5000000000000027756 ) ) ;
#99 = CC_DESIGN_PERSON_AND_ORGANIZATION_ASSIGNMENT ( #85, #91, ( #54 ) ) ;
#100 = FACE_OUTER_BOUND ( 'NONE', #189, .T. ) ;
#101 =( NAMED_UNIT ( * ) PLANE_ANGLE_UNIT ( ) SI_UNIT ( $, .RADIAN. ) );
#102 = PERSON ( 'UNSPECIFIED', 'UNSPECIFIED', 'UNSPECIFIED', ('UNSPECIFIED'), ('UNSPECIFIED'), ('UNSPECIFIED') ) ;
#103 = APPROVAL ( #52, 'UNSPECIFIED' ) ;
#104 = APPROVAL_ROLE ( '' ) ;
#105 = DATE_AND_TIME ( #204, #155 ) ;
#106 = PERSON_AND_ORGANIZATION ( #102, #22 ) ;
#107 = AXIS2_PLACEMENT_3D ( 'NONE', #156, #80, #157 ) ;
#108 = DATE_AND_TIME ( #242, #133 ) ;
#109 = ORIENTED_EDGE ( 'NONE', *, *, #225, .F. ) ;
#110 = SHAPE_DEFINITION_REPRESENTATION ( #74, #120 ) ;
#111 = EDGE_LOOP ( 'NONE', ( #169 ) ) ;
#112 = DIRECTION ( 'NONE',  ( -3.491481338843133355E-15, 1.371972729871846822E-16, -1.000000000000000000 ) ) ;
#113 = ORIENTED_EDGE ( 'NONE', *, *, #236, .F. ) ;
#114 = DIRECTION ( 'NONE',  ( -3.491481338843133355E-15, 1.371972729871846822E-16, -1.000000000000000000 ) ) ;
#115 = FACE_BOUND ( 'NONE', #111, .T. ) ;
#116 = CIRCLE ( 'NONE', #14, 5.305999999999998273 ) ;
#117 = CC_DESIGN_DATE_AND_TIME_ASSIGNMENT ( #105, #33, ( #54 ) ) ;
#118 = CARTESIAN_POINT ( 'NONE',  ( -1.368455531567204171E-45, 4.805999999999996497, 0.000000000000000000 ) ) ;
#119 = DIRECTION ( 'NONE',  ( -1.960049321464582767E-30, 1.000000000000000000, -5.517048371109805298E-16 ) ) ;
#120 = ADVANCED_BREP_SHAPE_REPRESENTATION ( '420558', ( #150, #148, #56 ), #68 ) ;
#121 = DIRECTION ( 'NONE',  ( -2.323021418032103622E-30, 1.000000000000000000, -6.538723995389414430E-16 ) ) ;
#122 = AXIS2_PLACEMENT_3D ( 'NONE', #243, #94, #173 ) ;
#123 = DATE_TIME_ROLE ( 'creation_date' ) ;
#124 = PERSON_AND_ORGANIZATION_ROLE ( 'creator' ) ;
#125 = APPLICATION_PROTOCOL_DEFINITION ( 'international standard', 'config_control_design', 1994, #130 ) ;
#126 = AXIS2_PLACEMENT_3D ( 'NONE', #24, #216, #47 ) ;
#127 = APPROVAL_DATE_TIME ( #53, #103 ) ;
#128 = EDGE_LOOP ( 'NONE', ( #153 ) ) ;
#129 = AXIS2_PLACEMENT_3D ( 'NONE', #95, #64, #5 ) ;
#130 = APPLICATION_CONTEXT ( 'configuration controlled 3d designs of mechanical parts and assemblies' ) ;
#131 = EDGE_LOOP ( 'NONE', ( #113 ) ) ;
#132 = ORIENTED_EDGE ( 'NONE', *, *, #37, .F. ) ;
#133 = LOCAL_TIME ( 13, 59, 1.000000000000000000, #183 ) ;
#134 = EDGE_LOOP ( 'NONE', ( #59 ) ) ;
#135 = APPLICATION_CONTEXT ( 'configuration controlled 3d designs of mechanical parts and assemblies' ) ;
#136 = DIRECTION ( 'NONE',  ( 0.000000000000000000, 1.000000000000000000, 0.000000000000000000 ) ) ;
#137 = CARTESIAN_POINT ( 'NONE',  ( 7.144217051125596610E-14, -2.807310141224315901E-15, 20.46185088158815546 ) ) ;
#138 = CARTESIAN_POINT ( 'NONE',  ( 4.608755367272936534E-13, -1.811004003430837835E-14, 132.0000000000000000 ) ) ;
#139 = PRODUCT_DEFINITION_FORMATION_WITH_SPECIFIED_SOURCE ( 'ANY', '', #187, .NOT_KNOWN. ) ;
#140 = PLANE ( 'NONE',  #181 ) ;
#141 = FACE_OUTER_BOUND ( 'NONE', #128, .T. ) ;
#142 = CONICAL_SURFACE ( 'NONE', #82, 4.805999999999996497, 0.7853981633974492782 ) ;
#143 = PRODUCT_DEFINITION ( 'UNKNOWN', '', #139, #87 ) ;
#144 = SECURITY_CLASSIFICATION_LEVEL ( 'unclassified' ) ;
#145 = AXIS2_PLACEMENT_3D ( 'NONE', #138, #114, #178 ) ;
#146 = ORIENTED_EDGE ( 'NONE', *, *, #198, .T. ) ;
#147 = CC_DESIGN_DATE_AND_TIME_ASSIGNMENT ( #218, #123, ( #143 ) ) ;
#148 = MANIFOLD_SOLID_BREP ( 'Corps-Déplacer/Copier1[2]', #88 ) ;
#149 = DIRECTION ( 'NONE',  ( 1.924081715291242525E-30, -1.000000000000000000, 5.510789056454665751E-16 ) ) ;
#150 = MANIFOLD_SOLID_BREP ( 'Corps-Déplacer/Copier1[1]', #191 ) ;
#151 = AXIS2_PLACEMENT_3D ( 'NONE', #137, #228, #136 ) ;
#152 = ADVANCED_FACE ( 'NONE', ( #212 ), #6, .T. ) ;
#153 = ORIENTED_EDGE ( 'NONE', *, *, #158, .F. ) ;
#154 = FACE_OUTER_BOUND ( 'NONE', #241, .T. ) ;
#155 = LOCAL_TIME ( 13, 59, 1.000000000000000000, #219 ) ;
#156 = CARTESIAN_POINT ( 'NONE',  ( 4.643670180661366731E-13, -1.824723730729556232E-14, 133.0000000000000000 ) ) ;
#157 = DIRECTION ( 'NONE',  ( -4.790217183749224165E-31, -1.000000000000000000, -1.371972729871846822E-16 ) ) ;
#158 = EDGE_CURVE ( 'NONE', #65, #65, #48, .T. ) ;
#159 = DIRECTION ( 'NONE',  ( 3.491481338843133355E-15, 5.510789056454665751E-16, 1.000000000000000000 ) ) ;
#160 = CYLINDRICAL_SURFACE ( 'NONE', #129, 4.999999999999993783 ) ;
#161 = CC_DESIGN_APPROVAL ( #103, ( #139 ) ) ;
#162 = VERTEX_POINT ( 'NONE', #234 ) ;
#163 = PERSON_AND_ORGANIZATION_ROLE ( 'design_owner' ) ;
#164 = CC_DESIGN_APPROVAL ( #90, ( #54 ) ) ;
#165 = CALENDAR_DATE ( 2023, 28, 9 ) ;
#166 = PERSON_AND_ORGANIZATION ( #102, #22 ) ;
#167 = PERSON_AND_ORGANIZATION ( #102, #22 ) ;
#168 = ADVANCED_FACE ( 'NONE', ( #100, #141 ), #160, .T. ) ;
#169 = ORIENTED_EDGE ( 'NONE', *, *, #37, .T. ) ;
#170 = EDGE_LOOP ( 'NONE', ( #188 ) ) ;
#171 = CARTESIAN_POINT ( 'NONE',  ( 4.643670180661366731E-13, -1.824723730729556232E-14, 133.0000000000000000 ) ) ;
#172 = ORIENTED_EDGE ( 'NONE', *, *, #225, .T. ) ;
#173 = DIRECTION ( 'NONE',  ( -1.924081715291242525E-30, 1.000000000000000000, -5.510789056454665751E-16 ) ) ;
#174 = CARTESIAN_POINT ( 'NONE',  ( 7.144217051125595348E-14, 5.305999999999997385, 20.46185088158815191 ) ) ;
#175 = AXIS2_PLACEMENT_3D ( 'NONE', #25, #211, #61 ) ;
#176 = CC_DESIGN_PERSON_AND_ORGANIZATION_ASSIGNMENT ( #200, #182, ( #139 ) ) ;
#177 = DIRECTION ( 'NONE',  ( 1.924081715291242525E-30, -1.000000000000000000, 5.510789056454665751E-16 ) ) ;
#178 = DIRECTION ( 'NONE',  ( 0.000000000000000000, 1.000000000000000000, 0.000000000000000000 ) ) ;
#179 = CARTESIAN_POINT ( 'NONE',  ( 4.643670180661366731E-13, 3.999999999999983569, 133.0000000000000000 ) ) ;
#180 = FACE_OUTER_BOUND ( 'NONE', #76, .T. ) ;
#181 = AXIS2_PLACEMENT_3D ( 'NONE', #174, #81, #233 ) ;
#182 = PERSON_AND_ORGANIZATION_ROLE ( 'creator' ) ;
#183 = COORDINATED_UNIVERSAL_TIME_OFFSET ( 1, 0, .AHEAD. ) ;
#184 = COORDINATED_UNIVERSAL_TIME_OFFSET ( 1, 0, .AHEAD. ) ;
#185 = CC_DESIGN_PERSON_AND_ORGANIZATION_ASSIGNMENT ( #166, #124, ( #143 ) ) ;
#186 = AXIS2_PLACEMENT_3D ( 'NONE', #4, #196, #66 ) ;
#187 = PRODUCT ( '420558', '420558', '', ( #50 ) ) ;
#188 = ORIENTED_EDGE ( 'NONE', *, *, #23, .F. ) ;
#189 = EDGE_LOOP ( 'NONE', ( #172 ) ) ;
#190 = ADVANCED_FACE ( 'NONE', ( #180, #195 ), #78, .T. ) ;
#191 = CLOSED_SHELL ( 'NONE', ( #210, #238, #168, #77, #231 ) ) ;
#192 = CIRCLE ( 'NONE', #151, 5.306000000000000050 ) ;
#193 = EDGE_LOOP ( 'NONE', ( #57 ) ) ;
#194 = APPROVAL ( #51, 'UNSPECIFIED' ) ;
#195 = FACE_OUTER_BOUND ( 'NONE', #38, .T. ) ;
#196 = DIRECTION ( 'NONE',  ( -3.491481338843133355E-15, 1.371972729871846822E-16, -1.000000000000000000 ) ) ;
#197 = FACE_OUTER_BOUND ( 'NONE', #2, .T. ) ;
#198 = EDGE_CURVE ( 'NONE', #199, #199, #203, .T. ) ;
#199 = VERTEX_POINT ( 'NONE', #26 ) ;
#200 = PERSON_AND_ORGANIZATION ( #102, #22 ) ;
#201 = CALENDAR_DATE ( 2023, 28, 9 ) ;
#202 = CALENDAR_DATE ( 2023, 28, 9 ) ;
#203 = CIRCLE ( 'NONE', #224, 5.305999999999985839 ) ;
#204 = CALENDAR_DATE ( 2023, 28, 9 ) ;
#205 = CARTESIAN_POINT ( 'NONE',  ( 9.247136723689704491E-30, 1.459524336949027711E-30, 2.648485220532110586E-15 ) ) ;
#206 = CIRCLE ( 'NONE', #92, 5.000000000000000888 ) ;
#207 = CC_DESIGN_PERSON_AND_ORGANIZATION_ASSIGNMENT ( #15, #163, ( #187 ) ) ;
#208 = EDGE_LOOP ( 'NONE', ( #109 ) ) ;
#209 = DIRECTION ( 'NONE',  ( -1.924081715291242875E-30, 1.000000000000000000, -5.510789056454665751E-16 ) ) ;
#210 = ADVANCED_FACE ( 'NONE', ( #197 ), #42, .T. ) ;
#211 = DIRECTION ( 'NONE',  ( -3.491481338843133355E-15, 1.371972729871846822E-16, -1.000000000000000000 ) ) ;
#212 = FACE_OUTER_BOUND ( 'NONE', #193, .T. ) ;
#213 = LOCAL_TIME ( 13, 59, 1.000000000000000000, #184 ) ;
#214 = CARTESIAN_POINT ( 'NONE',  ( 4.608755367272936534E-13, -1.811004003430837835E-14, 132.0000000000000000 ) ) ;
#215 = CARTESIAN_POINT ( 'NONE',  ( 7.329268197145786943E-14, 4.999999999999984013, 20.99185842870426200 ) ) ;
#216 = DIRECTION ( 'NONE',  ( -3.491481338843133355E-15, -5.510789056454665751E-16, -1.000000000000000000 ) ) ;
#217 = APPROVAL_ROLE ( '' ) ;
#218 = DATE_AND_TIME ( #201, #221 ) ;
#219 = COORDINATED_UNIVERSAL_TIME_OFFSET ( 1, 0, .AHEAD. ) ;
#220 = EDGE_CURVE ( 'NONE', #10, #10, #116, .T. ) ;
#221 = LOCAL_TIME ( 13, 59, 1.000000000000000000, #55 ) ;
#222 = CARTESIAN_POINT ( 'NONE',  ( 9.247136723689704491E-30, 1.459524336949027711E-30, 2.648485220532110586E-15 ) ) ;
#223 = DIRECTION ( 'NONE',  ( 0.000000000000000000, 1.000000000000000000, 0.000000000000000000 ) ) ;
#224 = AXIS2_PLACEMENT_3D ( 'NONE', #21, #46, #121 ) ;
#225 = EDGE_CURVE ( 'NONE', #162, #162, #206, .T. ) ;
#226 = FACE_BOUND ( 'NONE', #134, .T. ) ;
#227 = AXIS2_PLACEMENT_3D ( 'NONE', #222, #17, #209 ) ;
#228 = DIRECTION ( 'NONE',  ( -3.491481338843133355E-15, 1.371972729871846822E-16, -1.000000000000000000 ) ) ;
#229 = DIRECTION ( 'NONE',  ( -3.491481338843133355E-15, -5.510789056454665751E-16, -1.000000000000000000 ) ) ;
#230 = CARTESIAN_POINT ( 'NONE',  ( 7.144217051125595348E-14, 1.127609439130632504E-14, 20.46185088158815191 ) ) ;
#231 = ADVANCED_FACE ( 'NONE', ( #20 ), #140, .T. ) ;
#232 = LOCAL_TIME ( 13, 59, 1.000000000000000000, #239 ) ;
#233 = DIRECTION ( 'NONE',  ( 4.790217183749224165E-31, 1.000000000000000000, 1.371972729871846822E-16 ) ) ;
#234 = CARTESIAN_POINT ( 'NONE',  ( 4.608755367272936534E-13, 4.999999999999983125, 132.0000000000000000 ) ) ;
#235 = APPLICATION_PROTOCOL_DEFINITION ( 'international standard', 'config_control_design', 1994, #135 ) ;
#236 = EDGE_CURVE ( 'NONE', #240, #240, #192, .T. ) ;
#237 = APPROVAL_DATE_TIME ( #89, #194 ) ;
#238 = ADVANCED_FACE ( 'NONE', ( #115, #97 ), #44, .T. ) ;
#239 = COORDINATED_UNIVERSAL_TIME_OFFSET ( 1, 0, .AHEAD. ) ;
#240 = VERTEX_POINT ( 'NONE', #69 ) ;
#241 = EDGE_LOOP ( 'NONE', ( #93 ) ) ;
#242 = CALENDAR_DATE ( 2023, 28, 9 ) ;
#243 = CARTESIAN_POINT ( 'NONE',  ( -4.623568361844852245E-30, 4.805999999999996497, -1.324242610266055293E-15 ) ) ;
ENDSEC;
END-ISO-10303-21;
