ISO-10303-21;
HEADER;
FILE_DESCRIPTION (( 'STEP AP203' ),
    '1' );
FILE_NAME ('420557.step',
    '2023-09-28T11:59:00',
    ( '' ),
    ( '' ),
    'SwSTEP 2.0',
    'SolidWorks 2022',
    '' );
FILE_SCHEMA (( 'CONFIG_CONTROL_DESIGN' ));
ENDSEC;

DATA;
#1 = AXIS2_PLACEMENT_3D ( 'NONE', #38, #111, #242 ) ;
#2 = LOCAL_TIME ( 13, 59, 0.000000000000000000, #223 ) ;
#3 = APPROVAL_STATUS ( 'not_yet_approved' ) ;
#4 = DIRECTION ( 'NONE',  ( -1.905410142848863953E-30, 1.000000000000000000, -5.569531707973482884E-16 ) ) ;
#5 = COORDINATED_UNIVERSAL_TIME_OFFSET ( 1, 0, .AHEAD. ) ;
#6 = PERSON_AND_ORGANIZATION ( #132, #142 ) ;
#7 = FACE_OUTER_BOUND ( 'NONE', #68, .T. ) ;
#8 = ADVANCED_FACE ( 'NONE', ( #32 ), #74, .T. ) ;
#9 = EDGE_LOOP ( 'NONE', ( #161 ) ) ;
#10 = EDGE_LOOP ( 'NONE', ( #33 ) ) ;
#11 = EDGE_LOOP ( 'NONE', ( #54 ) ) ;
#12 = CC_DESIGN_SECURITY_CLASSIFICATION ( #70, ( #228 ) ) ;
#13 = DIRECTION ( 'NONE',  ( 3.491481338843133355E-15, -1.371972729871846822E-16, 1.000000000000000000 ) ) ;
#14 = VERTEX_POINT ( 'NONE', #240 ) ;
#15 = CARTESIAN_POINT ( 'NONE',  ( 1.745740669421566283E-15, 5.255999999999998451, 0.4999999999999998890 ) ) ;
#16 = DIRECTION ( 'NONE',  ( -3.491481338843133355E-15, -5.477240868405302372E-16, -1.000000000000000000 ) ) ;
#17 = CIRCLE ( 'NONE', #156, 4.999999999999985789 ) ;
#18 = DIRECTION ( 'NONE',  ( -3.491481338843133355E-15, 1.371972729871846822E-16, -1.000000000000000000 ) ) ;
#19 = CARTESIAN_POINT ( 'NONE',  ( 7.174454166488370391E-14, -2.819191773598000544E-15, 20.54845342196659885 ) ) ;
#20 = COORDINATED_UNIVERSAL_TIME_OFFSET ( 1, 0, .AHEAD. ) ;
#21 = UNCERTAINTY_MEASURE_WITH_UNIT (LENGTH_MEASURE( 1.000000000000000082E-05 ), #179, 'distance_accuracy_value', 'NONE');
#22 = PERSON_AND_ORGANIZATION_ROLE ( 'design_owner' ) ;
#23 = PERSON_AND_ORGANIZATION ( #132, #142 ) ;
#24 = ADVANCED_FACE ( 'NONE', ( #120 ), #145, .T. ) ;
#25 = PERSON_AND_ORGANIZATION_ROLE ( 'creator' ) ;
#26 = DIRECTION ( 'NONE',  ( 3.491481338843133355E-15, 5.477240868405302372E-16, 1.000000000000000000 ) ) ;
#27 = APPROVAL_ROLE ( '' ) ;
#28 = DIRECTION ( 'NONE',  ( -3.491481338843133355E-15, 1.371972729871846822E-16, -1.000000000000000000 ) ) ;
#29 = FACE_OUTER_BOUND ( 'NONE', #52, .T. ) ;
#30 = CIRCLE ( 'NONE', #34, 4.755999999999997563 ) ;
#31 = EDGE_LOOP ( 'NONE', ( #81 ) ) ;
#32 = FACE_OUTER_BOUND ( 'NONE', #31, .T. ) ;
#33 = ORIENTED_EDGE ( 'NONE', *, *, #212, .F. ) ;
#34 = AXIS2_PLACEMENT_3D ( 'NONE', #182, #16, #199 ) ;
#35 = APPROVAL ( #190, 'UNSPECIFIED' ) ;
#36 = EDGE_LOOP ( 'NONE', ( #73 ) ) ;
#37 = CARTESIAN_POINT ( 'NONE',  ( 0.000000000000000000, 0.000000000000000000, 0.000000000000000000 ) ) ;
#38 = CARTESIAN_POINT ( 'NONE',  ( 7.174454166488371653E-14, 1.125488288653182574E-14, 20.54845342196660241 ) ) ;
#39 = EDGE_CURVE ( 'NONE', #66, #66, #92, .T. ) ;
#40 = LOCAL_TIME ( 13, 59, 0.000000000000000000, #205 ) ;
#41 = FACE_OUTER_BOUND ( 'NONE', #143, .T. ) ;
#42 = AXIS2_PLACEMENT_3D ( 'NONE', #159, #13, #209 ) ;
#43 = VERTEX_POINT ( 'NONE', #15 ) ;
#44 = DIRECTION ( 'NONE',  ( 0.000000000000000000, 1.000000000000000000, 0.000000000000000000 ) ) ;
#45 = COORDINATED_UNIVERSAL_TIME_OFFSET ( 1, 0, .AHEAD. ) ;
#46 = CIRCLE ( 'NONE', #75, 4.000000000000001776 ) ;
#47 = APPROVAL_PERSON_ORGANIZATION ( #166, #98, #51 ) ;
#48 = VERTEX_POINT ( 'NONE', #163 ) ;
#49 = CC_DESIGN_PERSON_AND_ORGANIZATION_ASSIGNMENT ( #23, #25, ( #228 ) ) ;
#50 = DIRECTION ( 'NONE',  ( 0.000000000000000000, 0.000000000000000000, 1.000000000000000000 ) ) ;
#51 = APPROVAL_ROLE ( '' ) ;
#52 = EDGE_LOOP ( 'NONE', ( #213 ) ) ;
#53 = AXIS2_PLACEMENT_3D ( 'NONE', #225, #28, #189 ) ;
#54 = ORIENTED_EDGE ( 'NONE', *, *, #151, .F. ) ;
#55 = ADVANCED_FACE ( 'NONE', ( #29 ), #126, .T. ) ;
#56 = ORIENTED_EDGE ( 'NONE', *, *, #160, .F. ) ;
#57 = CIRCLE ( 'NONE', #64, 5.000000000000000888 ) ;
#58 = ORIENTED_EDGE ( 'NONE', *, *, #39, .F. ) ;
#59 = DIRECTION ( 'NONE',  ( -3.491481338843133355E-15, -5.477240868405302372E-16, -1.000000000000000000 ) ) ;
#60 = CARTESIAN_POINT ( 'NONE',  ( 7.329268197145786943E-14, -2.880025731351272149E-15, 20.99185842870426200 ) ) ;
#61 = MANIFOLD_SOLID_BREP ( 'Corps-Déplacer/Copier1[2]', #158 ) ;
#62 = CARTESIAN_POINT ( 'NONE',  ( 4.643670180661366731E-13, -1.824723730729556232E-14, 133.0000000000000000 ) ) ;
#63 = CALENDAR_DATE ( 2023, 28, 9 ) ;
#64 = AXIS2_PLACEMENT_3D ( 'NONE', #196, #146, #180 ) ;
#65 = DIRECTION ( 'NONE',  ( 1.000000000000000000, 0.000000000000000000, 0.000000000000000000 ) ) ;
#66 = VERTEX_POINT ( 'NONE', #229 ) ;
#67 = APPROVAL_ROLE ( '' ) ;
#68 = EDGE_LOOP ( 'NONE', ( #193 ) ) ;
#69 = CONICAL_SURFACE ( 'NONE', #210, 4.755999999999997563, 0.7853981633974492782 ) ;
#70 = SECURITY_CLASSIFICATION ( '', '', #169 ) ;
#71 = ADVANCED_FACE ( 'NONE', ( #106 ), #90, .T. ) ;
#72 = CC_DESIGN_PERSON_AND_ORGANIZATION_ASSIGNMENT ( #152, #86, ( #70 ) ) ;
#73 = ORIENTED_EDGE ( 'NONE', *, *, #151, .T. ) ;
#74 = PLANE ( 'NONE',  #42 ) ;
#75 = AXIS2_PLACEMENT_3D ( 'NONE', #62, #114, #130 ) ;
#76 = APPLICATION_PROTOCOL_DEFINITION ( 'international standard', 'config_control_design', 1994, #191 ) ;
#77 = FACE_BOUND ( 'NONE', #237, .T. ) ;
#78 = PRODUCT ( '420557', '420557', '', ( #220 ) ) ;
#79 = PRODUCT_DEFINITION ( 'UNKNOWN', '', #228, #172 ) ;
#80 = DIRECTION ( 'NONE',  ( -3.491481338843133355E-15, 1.371972729871846822E-16, -1.000000000000000000 ) ) ;
#81 = ORIENTED_EDGE ( 'NONE', *, *, #128, .F. ) ;
#82 = ORIENTED_EDGE ( 'NONE', *, *, #192, .T. ) ;
#83 = PERSON_AND_ORGANIZATION ( #132, #142 ) ;
#84 = FACE_OUTER_BOUND ( 'NONE', #11, .T. ) ;
#85 =( GEOMETRIC_REPRESENTATION_CONTEXT ( 3 ) GLOBAL_UNCERTAINTY_ASSIGNED_CONTEXT ( ( #21 ) ) GLOBAL_UNIT_ASSIGNED_CONTEXT ( ( #179, #181, #198 ) ) REPRESENTATION_CONTEXT ( 'NONE', 'WORKASPACE' ) );
#86 = PERSON_AND_ORGANIZATION_ROLE ( 'classification_officer' ) ;
#87 = DATE_AND_TIME ( #153, #40 ) ;
#88 = CC_DESIGN_PERSON_AND_ORGANIZATION_ASSIGNMENT ( #226, #201, ( #79 ) ) ;
#89 = DIRECTION ( 'NONE',  ( 0.000000000000000000, 1.000000000000000000, 0.000000000000000000 ) ) ;
#90 = PLANE ( 'NONE',  #119 ) ;
#91 = CC_DESIGN_DATE_AND_TIME_ASSIGNMENT ( #154, #227, ( #79 ) ) ;
#92 = CIRCLE ( 'NONE', #162, 5.256000000000000227 ) ;
#93 = EDGE_LOOP ( 'NONE', ( #58 ) ) ;
#94 = FACE_OUTER_BOUND ( 'NONE', #9, .T. ) ;
#95 = VERTEX_POINT ( 'NONE', #149 ) ;
#96 = FACE_OUTER_BOUND ( 'NONE', #174, .T. ) ;
#97 = ADVANCED_FACE ( 'NONE', ( #200, #241 ), #206, .T. ) ;
#98 = APPROVAL ( #3, 'UNSPECIFIED' ) ;
#99 = LOCAL_TIME ( 13, 59, 0.000000000000000000, #5 ) ;
#100 = FACE_OUTER_BOUND ( 'NONE', #235, .T. ) ;
#101 = APPROVAL_STATUS ( 'not_yet_approved' ) ;
#102 = PERSON_AND_ORGANIZATION_ROLE ( 'design_supplier' ) ;
#103 = APPROVAL_PERSON_ORGANIZATION ( #118, #35, #67 ) ;
#104 = CALENDAR_DATE ( 2023, 28, 9 ) ;
#105 = PRODUCT_RELATED_PRODUCT_CATEGORY ( 'detail', '', ( #78 ) ) ;
#106 = FACE_OUTER_BOUND ( 'NONE', #144, .T. ) ;
#107 = AXIS2_PLACEMENT_3D ( 'NONE', #164, #59, #197 ) ;
#108 = CC_DESIGN_DATE_AND_TIME_ASSIGNMENT ( #138, #207, ( #70 ) ) ;
#109 = CIRCLE ( 'NONE', #215, 5.255999999999998451 ) ;
#110 = VERTEX_POINT ( 'NONE', #165 ) ;
#111 = DIRECTION ( 'NONE',  ( -3.491481338843133355E-15, -5.477240868405302372E-16, -1.000000000000000000 ) ) ;
#112 = AXIS2_PLACEMENT_3D ( 'NONE', #230, #211, #157 ) ;
#113 = FACE_BOUND ( 'NONE', #10, .T. ) ;
#114 = DIRECTION ( 'NONE',  ( -3.491481338843133355E-15, 1.371972729871846822E-16, -1.000000000000000000 ) ) ;
#115 = PERSON_AND_ORGANIZATION ( #132, #142 ) ;
#116 = DIRECTION ( 'NONE',  ( 1.912368428038606779E-30, -1.000000000000000000, 5.477240868405302372E-16 ) ) ;
#117 = CALENDAR_DATE ( 2023, 28, 9 ) ;
#118 = PERSON_AND_ORGANIZATION ( #132, #142 ) ;
#119 = AXIS2_PLACEMENT_3D ( 'NONE', #232, #141, #218 ) ;
#120 = FACE_OUTER_BOUND ( 'NONE', #177, .T. ) ;
#121 = LOCAL_TIME ( 13, 59, 0.000000000000000000, #20 ) ;
#122 = CARTESIAN_POINT ( 'NONE',  ( -4.547612121875804923E-30, 4.755999999999997563, -1.302487878506780158E-15 ) ) ;
#123 = DIRECTION ( 'NONE',  ( -1.912368428038607129E-30, 1.000000000000000000, -5.477240868405302372E-16 ) ) ;
#124 = CONICAL_SURFACE ( 'NONE', #203, 5.000000000000000888, 0.7853981633974473908 ) ;
#125 = VERTEX_POINT ( 'NONE', #184 ) ;
#126 = PLANE ( 'NONE',  #239 ) ;
#127 = DIRECTION ( 'NONE',  ( 0.000000000000000000, 1.000000000000000000, 0.000000000000000000 ) ) ;
#128 = EDGE_CURVE ( 'NONE', #48, #48, #46, .T. ) ;
#129 = CC_DESIGN_APPROVAL ( #35, ( #228 ) ) ;
#130 = DIRECTION ( 'NONE',  ( 0.000000000000000000, 1.000000000000000000, 0.000000000000000000 ) ) ;
#131 = DIRECTION ( 'NONE',  ( 0.000000000000000000, 1.000000000000000000, 0.000000000000000000 ) ) ;
#132 = PERSON ( 'UNSPECIFIED', 'UNSPECIFIED', 'UNSPECIFIED', ('UNSPECIFIED'), ('UNSPECIFIED'), ('UNSPECIFIED') ) ;
#133 = APPROVAL_DATE_TIME ( #87, #208 ) ;
#134 = DATE_AND_TIME ( #63, #121 ) ;
#135 = CLOSED_SHELL ( 'NONE', ( #8, #137, #243, #97, #71 ) ) ;
#136 = APPLICATION_PROTOCOL_DEFINITION ( 'international standard', 'config_control_design', 1994, #178 ) ;
#137 = ADVANCED_FACE ( 'NONE', ( #77, #100 ), #124, .T. ) ;
#138 = DATE_AND_TIME ( #173, #2 ) ;
#139 = CIRCLE ( 'NONE', #1, 5.255999999999986017 ) ;
#140 = DIRECTION ( 'NONE',  ( -3.491481338843133355E-15, -5.477240868405302372E-16, -1.000000000000000000 ) ) ;
#141 = DIRECTION ( 'NONE',  ( -3.491481338843133355E-15, 1.371972729871846822E-16, -1.000000000000000000 ) ) ;
#142 = ORGANIZATION ( 'UNSPECIFIED', 'UNSPECIFIED', '' ) ;
#143 = EDGE_LOOP ( 'NONE', ( #194 ) ) ;
#144 = EDGE_LOOP ( 'NONE', ( #175 ) ) ;
#145 = PLANE ( 'NONE',  #112 ) ;
#146 = DIRECTION ( 'NONE',  ( -3.491481338843133355E-15, 1.371972729871846822E-16, -1.000000000000000000 ) ) ;
#147 = DIRECTION ( 'NONE',  ( -3.491481338843133355E-15, 1.371972729871846822E-16, -1.000000000000000000 ) ) ;
#148 = EDGE_CURVE ( 'NONE', #43, #43, #109, .T. ) ;
#149 = CARTESIAN_POINT ( 'NONE',  ( 7.174454166488370391E-14, 5.255999999999997563, 20.54845342196659885 ) ) ;
#150 = CARTESIAN_POINT ( 'NONE',  ( 4.608755367272936534E-13, -1.811004003430837835E-14, 132.0000000000000000 ) ) ;
#151 = EDGE_CURVE ( 'NONE', #14, #14, #17, .T. ) ;
#152 = PERSON_AND_ORGANIZATION ( #132, #142 ) ;
#153 = CALENDAR_DATE ( 2023, 28, 9 ) ;
#154 = DATE_AND_TIME ( #104, #99 ) ;
#155 = SHAPE_DEFINITION_REPRESENTATION ( #222, #202 ) ;
#156 = AXIS2_PLACEMENT_3D ( 'NONE', #60, #80, #127 ) ;
#157 = DIRECTION ( 'NONE',  ( 1.912368428038607129E-30, -1.000000000000000000, 5.477240868405302372E-16 ) ) ;
#158 = CLOSED_SHELL ( 'NONE', ( #24, #187, #219, #55 ) ) ;
#159 = CARTESIAN_POINT ( 'NONE',  ( 4.643670180661366731E-13, -1.824723730729556232E-14, 133.0000000000000000 ) ) ;
#160 = EDGE_CURVE ( 'NONE', #125, #125, #57, .T. ) ;
#161 = ORIENTED_EDGE ( 'NONE', *, *, #148, .F. ) ;
#162 = AXIS2_PLACEMENT_3D ( 'NONE', #236, #214, #89 ) ;
#163 = CARTESIAN_POINT ( 'NONE',  ( 4.643670180661366731E-13, 3.999999999999983569, 133.0000000000000000 ) ) ;
#164 = CARTESIAN_POINT ( 'NONE',  ( 0.000000000000000000, 0.000000000000000000, 0.000000000000000000 ) ) ;
#165 = CARTESIAN_POINT ( 'NONE',  ( 0.000000000000000000, 4.755999999999997563, 0.000000000000000000 ) ) ;
#166 = PERSON_AND_ORGANIZATION ( #132, #142 ) ;
#167 = CARTESIAN_POINT ( 'NONE',  ( 1.745740669421576341E-15, 2.738620434202666963E-16, 0.5000000000000027756 ) ) ;
#168 = DATE_AND_TIME ( #117, #233 ) ;
#169 = SECURITY_CLASSIFICATION_LEVEL ( 'unclassified' ) ;
#170 = CC_DESIGN_APPROVAL ( #208, ( #79 ) ) ;
#171 = APPROVAL_PERSON_ORGANIZATION ( #83, #208, #27 ) ;
#172 = DESIGN_CONTEXT ( 'detailed design', #178, 'design' ) ;
#173 = CALENDAR_DATE ( 2023, 28, 9 ) ;
#174 = EDGE_LOOP ( 'NONE', ( #82 ) ) ;
#175 = ORIENTED_EDGE ( 'NONE', *, *, #39, .T. ) ;
#176 = CC_DESIGN_PERSON_AND_ORGANIZATION_ASSIGNMENT ( #6, #22, ( #78 ) ) ;
#177 = EDGE_LOOP ( 'NONE', ( #238 ) ) ;
#178 = APPLICATION_CONTEXT ( 'configuration controlled 3d designs of mechanical parts and assemblies' ) ;
#179 =( LENGTH_UNIT ( ) NAMED_UNIT ( * ) SI_UNIT ( .MILLI., .METRE. ) );
#180 = DIRECTION ( 'NONE',  ( 0.000000000000000000, 1.000000000000000000, 0.000000000000000000 ) ) ;
#181 =( NAMED_UNIT ( * ) PLANE_ANGLE_UNIT ( ) SI_UNIT ( $, .RADIAN. ) );
#182 = CARTESIAN_POINT ( 'NONE',  ( 9.095224243751609846E-30, 1.426807967751971370E-30, 2.604975757013560315E-15 ) ) ;
#183 = CARTESIAN_POINT ( 'NONE',  ( 9.095224243751609846E-30, 1.426807967751971370E-30, 2.604975757013560315E-15 ) ) ;
#184 = CARTESIAN_POINT ( 'NONE',  ( 4.608755367272936534E-13, 4.999999999999983125, 132.0000000000000000 ) ) ;
#185 = CC_DESIGN_APPROVAL ( #98, ( #70 ) ) ;
#186 = CYLINDRICAL_SURFACE ( 'NONE', #53, 4.999999999999993783 ) ;
#187 = ADVANCED_FACE ( 'NONE', ( #96, #94 ), #216, .T. ) ;
#188 = APPROVAL_DATE_TIME ( #168, #35 ) ;
#189 = DIRECTION ( 'NONE',  ( 4.790217183749224165E-31, 1.000000000000000000, 1.371972729871846822E-16 ) ) ;
#190 = APPROVAL_STATUS ( 'not_yet_approved' ) ;
#191 = APPLICATION_CONTEXT ( 'configuration controlled 3d designs of mechanical parts and assemblies' ) ;
#192 = EDGE_CURVE ( 'NONE', #95, #95, #139, .T. ) ;
#193 = ORIENTED_EDGE ( 'NONE', *, *, #160, .T. ) ;
#194 = ORIENTED_EDGE ( 'NONE', *, *, #148, .T. ) ;
#195 = AXIS2_PLACEMENT_3D ( 'NONE', #37, #50, #65 ) ;
#196 = CARTESIAN_POINT ( 'NONE',  ( 4.608755367272936534E-13, -1.811004003430837835E-14, 132.0000000000000000 ) ) ;
#197 = DIRECTION ( 'NONE',  ( -1.912368428038607129E-30, 1.000000000000000000, -5.477240868405303358E-16 ) ) ;
#198 =( NAMED_UNIT ( * ) SI_UNIT ( $, .STERADIAN. ) SOLID_ANGLE_UNIT ( ) );
#199 = DIRECTION ( 'NONE',  ( -1.912368428038606779E-30, 1.000000000000000000, -5.477240868405302372E-16 ) ) ;
#200 = FACE_BOUND ( 'NONE', #36, .T. ) ;
#201 = PERSON_AND_ORGANIZATION_ROLE ( 'creator' ) ;
#202 = ADVANCED_BREP_SHAPE_REPRESENTATION ( '420557', ( #217, #61, #195 ), #85 ) ;
#203 = AXIS2_PLACEMENT_3D ( 'NONE', #150, #147, #44 ) ;
#204 = APPROVAL_DATE_TIME ( #134, #98 ) ;
#205 = COORDINATED_UNIVERSAL_TIME_OFFSET ( 1, 0, .AHEAD. ) ;
#206 = CONICAL_SURFACE ( 'NONE', #224, 5.256000000000000227, 0.5235987755982924874 ) ;
#207 = DATE_TIME_ROLE ( 'classification_date' ) ;
#208 = APPROVAL ( #101, 'UNSPECIFIED' ) ;
#209 = DIRECTION ( 'NONE',  ( -4.790217183749224165E-31, -1.000000000000000000, -1.371972729871846822E-16 ) ) ;
#210 = AXIS2_PLACEMENT_3D ( 'NONE', #183, #26, #116 ) ;
#211 = DIRECTION ( 'NONE',  ( 3.491481338843133355E-15, 5.477240868405302372E-16, 1.000000000000000000 ) ) ;
#212 = EDGE_CURVE ( 'NONE', #110, #110, #30, .T. ) ;
#213 = ORIENTED_EDGE ( 'NONE', *, *, #212, .T. ) ;
#214 = DIRECTION ( 'NONE',  ( -3.491481338843133355E-15, 1.371972729871846822E-16, -1.000000000000000000 ) ) ;
#215 = AXIS2_PLACEMENT_3D ( 'NONE', #167, #221, #4 ) ;
#216 = CYLINDRICAL_SURFACE ( 'NONE', #107, 5.255999999999992234 ) ;
#217 = MANIFOLD_SOLID_BREP ( 'Corps-Déplacer/Copier1[1]', #135 ) ;
#218 = DIRECTION ( 'NONE',  ( 4.790217183749224165E-31, 1.000000000000000000, 1.371972729871846822E-16 ) ) ;
#219 = ADVANCED_FACE ( 'NONE', ( #41, #113 ), #69, .T. ) ;
#220 = MECHANICAL_CONTEXT ( 'NONE', #191, 'mechanical' ) ;
#221 = DIRECTION ( 'NONE',  ( -3.491481338843133355E-15, -5.477240868405302372E-16, -1.000000000000000000 ) ) ;
#222 = PRODUCT_DEFINITION_SHAPE ( 'NONE', 'NONE',  #79 ) ;
#223 = COORDINATED_UNIVERSAL_TIME_OFFSET ( 1, 0, .AHEAD. ) ;
#224 = AXIS2_PLACEMENT_3D ( 'NONE', #19, #18, #131 ) ;
#225 = CARTESIAN_POINT ( 'NONE',  ( 0.000000000000000000, 0.000000000000000000, 0.000000000000000000 ) ) ;
#226 = PERSON_AND_ORGANIZATION ( #132, #142 ) ;
#227 = DATE_TIME_ROLE ( 'creation_date' ) ;
#228 = PRODUCT_DEFINITION_FORMATION_WITH_SPECIFIED_SOURCE ( 'ANY', '', #78, .NOT_KNOWN. ) ;
#229 = CARTESIAN_POINT ( 'NONE',  ( 7.174454166488370391E-14, 5.255999999999997563, 20.54845342196659885 ) ) ;
#230 = CARTESIAN_POINT ( 'NONE',  ( 7.174454166488369129E-14, 1.125488288653182258E-14, 20.54845342196659530 ) ) ;
#231 = CC_DESIGN_PERSON_AND_ORGANIZATION_ASSIGNMENT ( #115, #102, ( #228 ) ) ;
#232 = CARTESIAN_POINT ( 'NONE',  ( 7.174454166488369129E-14, 5.255999999999997563, 20.54845342196659530 ) ) ;
#233 = LOCAL_TIME ( 13, 59, 0.000000000000000000, #45 ) ;
#234 = ORIENTED_EDGE ( 'NONE', *, *, #128, .T. ) ;
#235 = EDGE_LOOP ( 'NONE', ( #56 ) ) ;
#236 = CARTESIAN_POINT ( 'NONE',  ( 7.174454166488370391E-14, -2.819191773598000544E-15, 20.54845342196659885 ) ) ;
#237 = EDGE_LOOP ( 'NONE', ( #234 ) ) ;
#238 = ORIENTED_EDGE ( 'NONE', *, *, #192, .F. ) ;
#239 = AXIS2_PLACEMENT_3D ( 'NONE', #122, #140, #123 ) ;
#240 = CARTESIAN_POINT ( 'NONE',  ( 7.329268197145786943E-14, 4.999999999999984013, 20.99185842870426200 ) ) ;
#241 = FACE_OUTER_BOUND ( 'NONE', #93, .T. ) ;
#242 = DIRECTION ( 'NONE',  ( -2.345120175813991955E-30, 1.000000000000000000, -6.600926468709328898E-16 ) ) ;
#243 = ADVANCED_FACE ( 'NONE', ( #7, #84 ), #186, .T. ) ;
ENDSEC;
END-ISO-10303-21;
