ISO-10303-21;
HEADER;
FILE_DESCRIPTION (( 'STEP AP203' ),
    '1' );
FILE_NAME ('420556.step',
    '2023-09-28T11:58:59',
    ( '' ),
    ( '' ),
    'SwSTEP 2.0',
    'SolidWorks 2022',
    '' );
FILE_SCHEMA (( 'CONFIG_CONTROL_DESIGN' ));
ENDSEC;

DATA;
#1 = PERSON_AND_ORGANIZATION ( #36, #46 ) ;
#2 = DIRECTION ( 'NONE',  ( 3.491481338843133355E-15, -1.371972729871846822E-16, 1.000000000000000000 ) ) ;
#3 = EDGE_LOOP ( 'NONE', ( #119 ) ) ;
#4 = PERSON_AND_ORGANIZATION_ROLE ( 'creator' ) ;
#5 = PERSON_AND_ORGANIZATION ( #36, #46 ) ;
#6 = ORIENTED_EDGE ( 'NONE', *, *, #126, .T. ) ;
#7 = APPROVAL_DATE_TIME ( #132, #49 ) ;
#8 = ADVANCED_FACE ( 'NONE', ( #235, #144 ), #37, .T. ) ;
#9 = ORIENTED_EDGE ( 'NONE', *, *, #136, .F. ) ;
#10 = DIRECTION ( 'NONE',  ( -3.491481338843133355E-15, 1.371972729871846822E-16, -1.000000000000000000 ) ) ;
#11 = DIRECTION ( 'NONE',  ( -3.491481338843133355E-15, -5.443974274776177489E-16, -1.000000000000000000 ) ) ;
#12 = DIRECTION ( 'NONE',  ( 0.000000000000000000, 1.000000000000000000, 0.000000000000000000 ) ) ;
#13 = AXIS2_PLACEMENT_3D ( 'NONE', #159, #34, #12 ) ;
#14 = DIRECTION ( 'NONE',  ( 4.790217183749224165E-31, 1.000000000000000000, 1.371972729871846822E-16 ) ) ;
#15 = EDGE_CURVE ( 'NONE', #98, #98, #143, .T. ) ;
#16 = CARTESIAN_POINT ( 'NONE',  ( 7.329268197145786943E-14, 4.999999999999984013, 20.99185842870426200 ) ) ;
#17 = DIRECTION ( 'NONE',  ( 3.491481338843133355E-15, 5.443974274776177489E-16, 1.000000000000000000 ) ) ;
#18 = AXIS2_PLACEMENT_3D ( 'NONE', #216, #10, #14 ) ;
#19 = CARTESIAN_POINT ( 'NONE',  ( 7.204691281851145435E-14, -2.831073405971685976E-15, 20.63505596234504225 ) ) ;
#20 = CARTESIAN_POINT ( 'NONE',  ( 8.944945777829567611E-30, 1.394710438862230708E-30, 2.561934293709667529E-15 ) ) ;
#21 = VERTEX_POINT ( 'NONE', #38 ) ;
#22 = DIRECTION ( 'NONE',  ( -1.900753458952310090E-30, 1.000000000000000000, -5.443974274776176503E-16 ) ) ;
#23 = CLOSED_SHELL ( 'NONE', ( #108, #77, #8, #94, #35 ) ) ;
#24 = PERSON_AND_ORGANIZATION_ROLE ( 'classification_officer' ) ;
#25 = DATE_TIME_ROLE ( 'classification_date' ) ;
#26 = APPROVAL_ROLE ( '' ) ;
#27 = ORIENTED_EDGE ( 'NONE', *, *, #39, .F. ) ;
#28 = CC_DESIGN_DATE_AND_TIME_ASSIGNMENT ( #194, #25, ( #116 ) ) ;
#29 = PERSON_AND_ORGANIZATION ( #36, #46 ) ;
#30 = APPROVAL ( #69, 'UNSPECIFIED' ) ;
#31 = EDGE_LOOP ( 'NONE', ( #138 ) ) ;
#32 = CALENDAR_DATE ( 2023, 28, 9 ) ;
#33 = CARTESIAN_POINT ( 'NONE',  ( 4.608755367272936534E-13, -1.811004003430837835E-14, 132.0000000000000000 ) ) ;
#34 = DIRECTION ( 'NONE',  ( -3.491481338843133355E-15, 1.371972729871846822E-16, -1.000000000000000000 ) ) ;
#35 = ADVANCED_FACE ( 'NONE', ( #184 ), #56, .T. ) ;
#36 = PERSON ( 'UNSPECIFIED', 'UNSPECIFIED', 'UNSPECIFIED', ('UNSPECIFIED'), ('UNSPECIFIED'), ('UNSPECIFIED') ) ;
#37 = CYLINDRICAL_SURFACE ( 'NONE', #160, 4.999999999999993783 ) ;
#38 = CARTESIAN_POINT ( 'NONE',  ( 7.204691281851145435E-14, 5.205999999999997740, 20.63505596234504225 ) ) ;
#39 = EDGE_CURVE ( 'NONE', #165, #165, #192, .T. ) ;
#40 = CIRCLE ( 'NONE', #234, 5.205999999999987082 ) ;
#41 = DIRECTION ( 'NONE',  ( 3.491481338843133355E-15, 5.443974274776177489E-16, 1.000000000000000000 ) ) ;
#42 = CC_DESIGN_APPROVAL ( #209, ( #116 ) ) ;
#43 = FACE_OUTER_BOUND ( 'NONE', #103, .T. ) ;
#44 = PLANE ( 'NONE',  #188 ) ;
#45 = PERSON_AND_ORGANIZATION ( #36, #46 ) ;
#46 = ORGANIZATION ( 'UNSPECIFIED', 'UNSPECIFIED', '' ) ;
#47 = APPROVAL_ROLE ( '' ) ;
#48 = EDGE_LOOP ( 'NONE', ( #236 ) ) ;
#49 = APPROVAL ( #173, 'UNSPECIFIED' ) ;
#50 = ORIENTED_EDGE ( 'NONE', *, *, #15, .F. ) ;
#51 = PERSON_AND_ORGANIZATION_ROLE ( 'design_owner' ) ;
#52 = APPLICATION_CONTEXT ( 'configuration controlled 3d designs of mechanical parts and assemblies' ) ;
#53 = AXIS2_PLACEMENT_3D ( 'NONE', #19, #205, #242 ) ;
#54 = EDGE_LOOP ( 'NONE', ( #9 ) ) ;
#55 = DATE_AND_TIME ( #135, #180 ) ;
#56 = PLANE ( 'NONE',  #18 ) ;
#57 = LOCAL_TIME ( 13, 58, 59.00000000000000000, #133 ) ;
#58 = CC_DESIGN_DATE_AND_TIME_ASSIGNMENT ( #224, #212, ( #172 ) ) ;
#59 = FACE_BOUND ( 'NONE', #31, .T. ) ;
#60 = AXIS2_PLACEMENT_3D ( 'NONE', #33, #142, #237 ) ;
#61 = DIRECTION ( 'NONE',  ( -3.491481338843133355E-15, -5.443974274776177489E-16, -1.000000000000000000 ) ) ;
#62 = FACE_OUTER_BOUND ( 'NONE', #198, .T. ) ;
#63 = CONICAL_SURFACE ( 'NONE', #70, 5.000000000000000888, 0.7853981633974473908 ) ;
#64 = CC_DESIGN_APPROVAL ( #49, ( #169 ) ) ;
#65 = CYLINDRICAL_SURFACE ( 'NONE', #217, 5.205999999999992411 ) ;
#66 = DATE_AND_TIME ( #139, #146 ) ;
#67 = DIRECTION ( 'NONE',  ( -3.491481338843133355E-15, -5.443974274776177489E-16, -1.000000000000000000 ) ) ;
#68 = EDGE_LOOP ( 'NONE', ( #50 ) ) ;
#69 = APPROVAL_STATUS ( 'not_yet_approved' ) ;
#70 = AXIS2_PLACEMENT_3D ( 'NONE', #238, #161, #127 ) ;
#71 = LOCAL_TIME ( 13, 58, 59.00000000000000000, #105 ) ;
#72 = APPROVAL_ROLE ( '' ) ;
#73 = ORIENTED_EDGE ( 'NONE', *, *, #126, .F. ) ;
#74 = AXIS2_PLACEMENT_3D ( 'NONE', #128, #61, #206 ) ;
#75 = AXIS2_PLACEMENT_3D ( 'NONE', #196, #229, #225 ) ;
#76 = EDGE_LOOP ( 'NONE', ( #201 ) ) ;
#77 = ADVANCED_FACE ( 'NONE', ( #93, #123 ), #63, .T. ) ;
#78 = ORIENTED_EDGE ( 'NONE', *, *, #15, .T. ) ;
#79 = APPLICATION_CONTEXT ( 'configuration controlled 3d designs of mechanical parts and assemblies' ) ;
#80 = APPROVAL_PERSON_ORGANIZATION ( #5, #209, #72 ) ;
#81 =( LENGTH_UNIT ( ) NAMED_UNIT ( * ) SI_UNIT ( .MILLI., .METRE. ) );
#82 = PRODUCT_DEFINITION_SHAPE ( 'NONE', 'NONE',  #172 ) ;
#83 = EDGE_CURVE ( 'NONE', #240, #240, #168, .T. ) ;
#84 = CARTESIAN_POINT ( 'NONE',  ( 7.204691281851146697E-14, 1.123367138175732170E-14, 20.63505596234504580 ) ) ;
#85 = ORIENTED_EDGE ( 'NONE', *, *, #83, .F. ) ;
#86 = APPROVAL_STATUS ( 'not_yet_approved' ) ;
#87 = AXIS2_PLACEMENT_3D ( 'NONE', #189, #100, #166 ) ;
#88 = APPROVAL_PERSON_ORGANIZATION ( #170, #30, #26 ) ;
#89 = ORIENTED_EDGE ( 'NONE', *, *, #39, .T. ) ;
#90 = MECHANICAL_CONTEXT ( 'NONE', #52, 'mechanical' ) ;
#91 = EDGE_LOOP ( 'NONE', ( #27 ) ) ;
#92 = CC_DESIGN_PERSON_AND_ORGANIZATION_ASSIGNMENT ( #228, #4, ( #172 ) ) ;
#93 = FACE_BOUND ( 'NONE', #215, .T. ) ;
#94 = ADVANCED_FACE ( 'NONE', ( #59, #218 ), #241, .T. ) ;
#95 = DIRECTION ( 'NONE',  ( -1.923710278681065977E-30, 1.000000000000000000, -5.414763058898026095E-16 ) ) ;
#96 = FACE_BOUND ( 'NONE', #121, .T. ) ;
#97 = CIRCLE ( 'NONE', #53, 5.206000000000000405 ) ;
#98 = VERTEX_POINT ( 'NONE', #164 ) ;
#99 = FACE_OUTER_BOUND ( 'NONE', #91, .T. ) ;
#100 = DIRECTION ( 'NONE',  ( -3.491481338843133355E-15, 1.371972729871846822E-16, -1.000000000000000000 ) ) ;
#101 = EDGE_CURVE ( 'NONE', #149, #149, #109, .T. ) ;
#102 = PLANE ( 'NONE',  #74 ) ;
#103 = EDGE_LOOP ( 'NONE', ( #73 ) ) ;
#104 = COORDINATED_UNIVERSAL_TIME_OFFSET ( 1, 0, .AHEAD. ) ;
#105 = COORDINATED_UNIVERSAL_TIME_OFFSET ( 1, 0, .AHEAD. ) ;
#106 = ADVANCED_FACE ( 'NONE', ( #62 ), #102, .T. ) ;
#107 = CLOSED_SHELL ( 'NONE', ( #233, #223, #137, #106 ) ) ;
#108 = ADVANCED_FACE ( 'NONE', ( #130 ), #44, .T. ) ;
#109 = CIRCLE ( 'NONE', #150, 4.705999999999997740 ) ;
#110 = CARTESIAN_POINT ( 'NONE',  ( 7.204691281851145435E-14, 5.205999999999997740, 20.63505596234504225 ) ) ;
#111 = CC_DESIGN_PERSON_AND_ORGANIZATION_ASSIGNMENT ( #213, #174, ( #169 ) ) ;
#112 = DIRECTION ( 'NONE',  ( -3.491481338843133355E-15, -5.443974274776177489E-16, -1.000000000000000000 ) ) ;
#113 = AXIS2_PLACEMENT_3D ( 'NONE', #145, #17, #187 ) ;
#114 = DIRECTION ( 'NONE',  ( 1.900753458952310090E-30, -1.000000000000000000, 5.443974274776176503E-16 ) ) ;
#115 = AXIS2_PLACEMENT_3D ( 'NONE', #20, #41, #114 ) ;
#116 = SECURITY_CLASSIFICATION ( '', '', #211 ) ;
#117 = CALENDAR_DATE ( 2023, 28, 9 ) ;
#118 = APPLICATION_PROTOCOL_DEFINITION ( 'international standard', 'config_control_design', 1994, #52 ) ;
#119 = ORIENTED_EDGE ( 'NONE', *, *, #83, .T. ) ;
#120 = APPLICATION_PROTOCOL_DEFINITION ( 'international standard', 'config_control_design', 1994, #79 ) ;
#121 = EDGE_LOOP ( 'NONE', ( #239 ) ) ;
#122 = PERSON_AND_ORGANIZATION_ROLE ( 'design_supplier' ) ;
#123 = FACE_OUTER_BOUND ( 'NONE', #140, .T. ) ;
#124 = CARTESIAN_POINT ( 'NONE',  ( 7.204691281851145435E-14, -2.831073405971685976E-15, 20.63505596234504225 ) ) ;
#125 = CARTESIAN_POINT ( 'NONE',  ( 0.000000000000000000, 4.705999999999997740, 0.000000000000000000 ) ) ;
#126 = EDGE_CURVE ( 'NONE', #21, #21, #40, .T. ) ;
#127 = DIRECTION ( 'NONE',  ( 0.000000000000000000, 1.000000000000000000, 0.000000000000000000 ) ) ;
#128 = CARTESIAN_POINT ( 'NONE',  ( -4.472472888914783806E-30, 4.705999999999997740, -1.280967146854833765E-15 ) ) ;
#129 = PLANE ( 'NONE',  #113 ) ;
#130 = FACE_OUTER_BOUND ( 'NONE', #68, .T. ) ;
#131 = ADVANCED_BREP_SHAPE_REPRESENTATION ( '420556', ( #221, #134, #75 ), #175 ) ;
#132 = DATE_AND_TIME ( #178, #71 ) ;
#133 = COORDINATED_UNIVERSAL_TIME_OFFSET ( 1, 0, .AHEAD. ) ;
#134 = MANIFOLD_SOLID_BREP ( 'Corps-Déplacer/Copier1[2]', #107 ) ;
#135 = CALENDAR_DATE ( 2023, 28, 9 ) ;
#136 = EDGE_CURVE ( 'NONE', #167, #167, #97, .T. ) ;
#137 = ADVANCED_FACE ( 'NONE', ( #147, #96 ), #183, .T. ) ;
#138 = ORIENTED_EDGE ( 'NONE', *, *, #202, .T. ) ;
#139 = CALENDAR_DATE ( 2023, 28, 9 ) ;
#140 = EDGE_LOOP ( 'NONE', ( #85 ) ) ;
#141 = CARTESIAN_POINT ( 'NONE',  ( 8.944945777829567611E-30, 1.394710438862230708E-30, 2.561934293709667529E-15 ) ) ;
#142 = DIRECTION ( 'NONE',  ( -3.491481338843133355E-15, 1.371972729871846822E-16, -1.000000000000000000 ) ) ;
#143 = CIRCLE ( 'NONE', #13, 4.000000000000001776 ) ;
#144 = FACE_OUTER_BOUND ( 'NONE', #48, .T. ) ;
#145 = CARTESIAN_POINT ( 'NONE',  ( 7.204691281851146697E-14, 1.123367138175732170E-14, 20.63505596234504580 ) ) ;
#146 = LOCAL_TIME ( 13, 58, 59.00000000000000000, #154 ) ;
#147 = FACE_OUTER_BOUND ( 'NONE', #156, .T. ) ;
#148 = CC_DESIGN_PERSON_AND_ORGANIZATION_ASSIGNMENT ( #157, #51, ( #195 ) ) ;
#149 = VERTEX_POINT ( 'NONE', #125 ) ;
#150 = AXIS2_PLACEMENT_3D ( 'NONE', #141, #11, #22 ) ;
#151 = CC_DESIGN_APPROVAL ( #30, ( #172 ) ) ;
#152 = COORDINATED_UNIVERSAL_TIME_OFFSET ( 1, 0, .AHEAD. ) ;
#153 = APPROVAL_PERSON_ORGANIZATION ( #29, #49, #47 ) ;
#154 = COORDINATED_UNIVERSAL_TIME_OFFSET ( 1, 0, .AHEAD. ) ;
#155 = PRODUCT_RELATED_PRODUCT_CATEGORY ( 'detail', '', ( #195 ) ) ;
#156 = EDGE_LOOP ( 'NONE', ( #89 ) ) ;
#157 = PERSON_AND_ORGANIZATION ( #36, #46 ) ;
#158 = AXIS2_PLACEMENT_3D ( 'NONE', #203, #163, #95 ) ;
#159 = CARTESIAN_POINT ( 'NONE',  ( 4.643670180661366731E-13, -1.824723730729556232E-14, 133.0000000000000000 ) ) ;
#160 = AXIS2_PLACEMENT_3D ( 'NONE', #181, #219, #182 ) ;
#161 = DIRECTION ( 'NONE',  ( -3.491481338843133355E-15, 1.371972729871846822E-16, -1.000000000000000000 ) ) ;
#162 = CC_DESIGN_PERSON_AND_ORGANIZATION_ASSIGNMENT ( #45, #24, ( #116 ) ) ;
#163 = DIRECTION ( 'NONE',  ( -3.491481338843133355E-15, -5.443974274776177489E-16, -1.000000000000000000 ) ) ;
#164 = CARTESIAN_POINT ( 'NONE',  ( 4.643670180661366731E-13, 3.999999999999983569, 133.0000000000000000 ) ) ;
#165 = VERTEX_POINT ( 'NONE', #210 ) ;
#166 = DIRECTION ( 'NONE',  ( 0.000000000000000000, 1.000000000000000000, 0.000000000000000000 ) ) ;
#167 = VERTEX_POINT ( 'NONE', #110 ) ;
#168 = CIRCLE ( 'NONE', #60, 5.000000000000000888 ) ;
#169 = PRODUCT_DEFINITION_FORMATION_WITH_SPECIFIED_SOURCE ( 'ANY', '', #195, .NOT_KNOWN. ) ;
#170 = PERSON_AND_ORGANIZATION ( #36, #46 ) ;
#171 = CARTESIAN_POINT ( 'NONE',  ( 4.643670180661366731E-13, -1.824723730729556232E-14, 133.0000000000000000 ) ) ;
#172 = PRODUCT_DEFINITION ( 'UNKNOWN', '', #169, #191 ) ;
#173 = APPROVAL_STATUS ( 'not_yet_approved' ) ;
#174 = PERSON_AND_ORGANIZATION_ROLE ( 'creator' ) ;
#175 =( GEOMETRIC_REPRESENTATION_CONTEXT ( 3 ) GLOBAL_UNCERTAINTY_ASSIGNED_CONTEXT ( ( #214 ) ) GLOBAL_UNIT_ASSIGNED_CONTEXT ( ( #81, #222, #176 ) ) REPRESENTATION_CONTEXT ( 'NONE', 'WORKASPACE' ) );
#176 =( NAMED_UNIT ( * ) SI_UNIT ( $, .STERADIAN. ) SOLID_ANGLE_UNIT ( ) );
#177 = ORIENTED_EDGE ( 'NONE', *, *, #101, .T. ) ;
#178 = CALENDAR_DATE ( 2023, 28, 9 ) ;
#179 = SHAPE_DEFINITION_REPRESENTATION ( #82, #131 ) ;
#180 = LOCAL_TIME ( 13, 58, 59.00000000000000000, #152 ) ;
#181 = CARTESIAN_POINT ( 'NONE',  ( 0.000000000000000000, 0.000000000000000000, 0.000000000000000000 ) ) ;
#182 = DIRECTION ( 'NONE',  ( 4.790217183749224165E-31, 1.000000000000000000, 1.371972729871846822E-16 ) ) ;
#183 = CONICAL_SURFACE ( 'NONE', #115, 4.705999999999997740, 0.7853981633974495002 ) ;
#184 = FACE_OUTER_BOUND ( 'NONE', #76, .T. ) ;
#185 = VERTEX_POINT ( 'NONE', #16 ) ;
#186 = DIRECTION ( 'NONE',  ( -4.790217183749224165E-31, -1.000000000000000000, -1.371972729871846822E-16 ) ) ;
#187 = DIRECTION ( 'NONE',  ( 1.900753458952310440E-30, -1.000000000000000000, 5.443974274776177489E-16 ) ) ;
#188 = AXIS2_PLACEMENT_3D ( 'NONE', #171, #2, #186 ) ;
#189 = CARTESIAN_POINT ( 'NONE',  ( 7.329268197145786943E-14, -2.880025731351272149E-15, 20.99185842870426200 ) ) ;
#190 = CARTESIAN_POINT ( 'NONE',  ( 0.000000000000000000, 0.000000000000000000, 0.000000000000000000 ) ) ;
#191 = DESIGN_CONTEXT ( 'detailed design', #79, 'design' ) ;
#192 = CIRCLE ( 'NONE', #158, 5.205999999999998629 ) ;
#193 = LOCAL_TIME ( 13, 58, 59.00000000000000000, #104 ) ;
#194 = DATE_AND_TIME ( #117, #57 ) ;
#195 = PRODUCT ( '420556', '420556', '', ( #90 ) ) ;
#196 = CARTESIAN_POINT ( 'NONE',  ( 0.000000000000000000, 0.000000000000000000, 0.000000000000000000 ) ) ;
#197 = APPROVAL_DATE_TIME ( #66, #30 ) ;
#198 = EDGE_LOOP ( 'NONE', ( #177 ) ) ;
#199 = AXIS2_PLACEMENT_3D ( 'NONE', #124, #220, #232 ) ;
#200 = APPROVAL_DATE_TIME ( #55, #209 ) ;
#201 = ORIENTED_EDGE ( 'NONE', *, *, #136, .T. ) ;
#202 = EDGE_CURVE ( 'NONE', #185, #185, #226, .T. ) ;
#203 = CARTESIAN_POINT ( 'NONE',  ( 1.745740669421576341E-15, 2.721987137388103536E-16, 0.5000000000000027756 ) ) ;
#204 = DIRECTION ( 'NONE',  ( -1.900753458952310791E-30, 1.000000000000000000, -5.443974274776178475E-16 ) ) ;
#205 = DIRECTION ( 'NONE',  ( -3.491481338843133355E-15, 1.371972729871846822E-16, -1.000000000000000000 ) ) ;
#206 = DIRECTION ( 'NONE',  ( -1.900753458952310440E-30, 1.000000000000000000, -5.443974274776177489E-16 ) ) ;
#207 = CARTESIAN_POINT ( 'NONE',  ( 4.608755367272936534E-13, 4.999999999999983125, 132.0000000000000000 ) ) ;
#208 = DIRECTION ( 'NONE',  ( -2.367643419915163354E-30, 1.000000000000000000, -6.664323764797585293E-16 ) ) ;
#209 = APPROVAL ( #86, 'UNSPECIFIED' ) ;
#210 = CARTESIAN_POINT ( 'NONE',  ( 1.745740669421566283E-15, 5.205999999999998629, 0.4999999999999998890 ) ) ;
#211 = SECURITY_CLASSIFICATION_LEVEL ( 'unclassified' ) ;
#212 = DATE_TIME_ROLE ( 'creation_date' ) ;
#213 = PERSON_AND_ORGANIZATION ( #36, #46 ) ;
#214 = UNCERTAINTY_MEASURE_WITH_UNIT (LENGTH_MEASURE( 1.000000000000000082E-05 ), #81, 'distance_accuracy_value', 'NONE');
#215 = EDGE_LOOP ( 'NONE', ( #78 ) ) ;
#216 = CARTESIAN_POINT ( 'NONE',  ( 7.204691281851146697E-14, 5.205999999999997740, 20.63505596234504580 ) ) ;
#217 = AXIS2_PLACEMENT_3D ( 'NONE', #190, #112, #204 ) ;
#218 = FACE_OUTER_BOUND ( 'NONE', #54, .T. ) ;
#219 = DIRECTION ( 'NONE',  ( -3.491481338843133355E-15, 1.371972729871846822E-16, -1.000000000000000000 ) ) ;
#220 = DIRECTION ( 'NONE',  ( -3.491481338843133355E-15, 1.371972729871846822E-16, -1.000000000000000000 ) ) ;
#221 = MANIFOLD_SOLID_BREP ( 'Corps-Déplacer/Copier1[1]', #23 ) ;
#222 =( NAMED_UNIT ( * ) PLANE_ANGLE_UNIT ( ) SI_UNIT ( $, .RADIAN. ) );
#223 = ADVANCED_FACE ( 'NONE', ( #243, #99 ), #65, .T. ) ;
#224 = DATE_AND_TIME ( #32, #193 ) ;
#225 = DIRECTION ( 'NONE',  ( 1.000000000000000000, 0.000000000000000000, 0.000000000000000000 ) ) ;
#226 = CIRCLE ( 'NONE', #87, 4.999999999999985789 ) ;
#227 = CC_DESIGN_SECURITY_CLASSIFICATION ( #116, ( #169 ) ) ;
#228 = PERSON_AND_ORGANIZATION ( #36, #46 ) ;
#229 = DIRECTION ( 'NONE',  ( 0.000000000000000000, 0.000000000000000000, 1.000000000000000000 ) ) ;
#230 = CC_DESIGN_PERSON_AND_ORGANIZATION_ASSIGNMENT ( #1, #122, ( #169 ) ) ;
#231 = EDGE_LOOP ( 'NONE', ( #6 ) ) ;
#232 = DIRECTION ( 'NONE',  ( 0.000000000000000000, 1.000000000000000000, 0.000000000000000000 ) ) ;
#233 = ADVANCED_FACE ( 'NONE', ( #43 ), #129, .T. ) ;
#234 = AXIS2_PLACEMENT_3D ( 'NONE', #84, #67, #208 ) ;
#235 = FACE_OUTER_BOUND ( 'NONE', #3, .T. ) ;
#236 = ORIENTED_EDGE ( 'NONE', *, *, #202, .F. ) ;
#237 = DIRECTION ( 'NONE',  ( 0.000000000000000000, 1.000000000000000000, 0.000000000000000000 ) ) ;
#238 = CARTESIAN_POINT ( 'NONE',  ( 4.608755367272936534E-13, -1.811004003430837835E-14, 132.0000000000000000 ) ) ;
#239 = ORIENTED_EDGE ( 'NONE', *, *, #101, .F. ) ;
#240 = VERTEX_POINT ( 'NONE', #207 ) ;
#241 = CONICAL_SURFACE ( 'NONE', #199, 5.206000000000000405, 0.5235987755982929315 ) ;
#242 = DIRECTION ( 'NONE',  ( 0.000000000000000000, 1.000000000000000000, 0.000000000000000000 ) ) ;
#243 = FACE_OUTER_BOUND ( 'NONE', #231, .T. ) ;
ENDSEC;
END-ISO-10303-21;
