ISO-10303-21;
HEADER;
FILE_DESCRIPTION (( 'STEP AP203' ),
    '1' );
FILE_NAME ('42023.step',
    '2021-09-03T07:22:19',
    ( '' ),
    ( '' ),
    'SwSTEP 2.0',
    'SolidWorks 2019',
    '' );
FILE_SCHEMA (( 'CONFIG_CONTROL_DESIGN' ));
ENDSEC;

DATA;
#1 = DIRECTION ( 'NONE',  ( 1.000000000000000000, 0.0000000000000000000, 0.0000000000000000000 ) ) ;
#2 = APPLICATION_CONTEXT ( 'configuration controlled 3d designs of mechanical parts and assemblies' ) ;
#3 = FACE_OUTER_BOUND ( 'NONE', #281, .T. ) ;
#4 = ORIENTED_EDGE ( 'NONE', *, *, #140, .T. ) ;
#5 = AXIS2_PLACEMENT_3D ( 'NONE', #217, #90, #290 ) ;
#6 = CARTESIAN_POINT ( 'NONE',  ( 0.0000000000000000000, 0.0000000000000000000, 0.0000000000000000000 ) ) ;
#7 = FACE_OUTER_BOUND ( 'NONE', #107, .T. ) ;
#8 = ORIENTED_EDGE ( 'NONE', *, *, #68, .F. ) ;
#9 = CARTESIAN_POINT ( 'NONE',  ( 1.959434878635753890E-16, -1.599999999999996314, -1.959434878635767449E-16 ) ) ;
#10 = ADVANCED_FACE ( 'NONE', ( #191 ), #63, .T. ) ;
#11 = VECTOR ( 'NONE', #27, 1000.000000000000000 ) ;
#12 = LINE ( 'NONE', #239, #165 ) ;
#13 = VERTEX_POINT ( 'NONE', #164 ) ;
#14 = UNCERTAINTY_MEASURE_WITH_UNIT (LENGTH_MEASURE( 1.000000000000000082E-05 ), #204, 'distance_accuracy_value', 'NONE');
#15 = VERTEX_POINT ( 'NONE', #113 ) ;
#16 = CIRCLE ( 'NONE', #185, 1.599999999999994316 ) ;
#17 = DATE_AND_TIME ( #171, #48 ) ;
#18 = ORIENTED_EDGE ( 'NONE', *, *, #222, .F. ) ;
#19 = LINE ( 'NONE', #330, #112 ) ;
#20 = CYLINDRICAL_SURFACE ( 'NONE', #117, 1.599999999999996314 ) ;
#21 = APPROVAL ( #296, 'UNSPECIFIED' ) ;
#22 = CONICAL_SURFACE ( 'NONE', #234, 1.599999999999992761, 1.029744258676649649 ) ;
#23 = FACE_OUTER_BOUND ( 'NONE', #337, .T. ) ;
#24 = COORDINATED_UNIVERSAL_TIME_OFFSET ( 1, 0, .AHEAD. ) ;
#25 = EDGE_CURVE ( 'NONE', #15, #146, #215, .T. ) ;
#26 = PERSON_AND_ORGANIZATION ( #88, #84 ) ;
#27 = DIRECTION ( 'NONE',  ( -3.491481338843133355E-15, 1.224646799147353207E-16, -1.000000000000000000 ) ) ;
#28 = AXIS2_PLACEMENT_3D ( 'NONE', #104, #126, #232 ) ;
#29 = CARTESIAN_POINT ( 'NONE',  ( 1.710825856033135470E-13, -6.000769315822030937E-15, 49.00000000000000000 ) ) ;
#30 = ORIENTED_EDGE ( 'NONE', *, *, #211, .T. ) ;
#31 = FACE_OUTER_BOUND ( 'NONE', #115, .T. ) ;
#32 = DIRECTION ( 'NONE',  ( -3.491481338843133355E-15, 1.224646799147353207E-16, -1.000000000000000000 ) ) ;
#33 = VERTEX_POINT ( 'NONE', #166 ) ;
#34 = ADVANCED_FACE ( 'NONE', ( #36 ), #82, .T. ) ;
#35 = AXIS2_PLACEMENT_3D ( 'NONE', #128, #289, #262 ) ;
#36 = FACE_OUTER_BOUND ( 'NONE', #210, .T. ) ;
#37 = ORIENTED_EDGE ( 'NONE', *, *, #183, .F. ) ;
#38 = FACE_OUTER_BOUND ( 'NONE', #54, .T. ) ;
#39 = PERSON_AND_ORGANIZATION ( #88, #84 ) ;
#40 = DIRECTION ( 'NONE',  ( 1.903218546456022717E-15, 0.8571673007021097801, 0.5150380749100585964 ) ) ;
#41 = COORDINATED_UNIVERSAL_TIME_OFFSET ( 1, 0, .AHEAD. ) ;
#42 = CONICAL_SURFACE ( 'NONE', #81, 1.199999999999998845, 0.7853981633974507215 ) ;
#43 = VERTEX_POINT ( 'NONE', #147 ) ;
#44 = CC_DESIGN_PERSON_AND_ORGANIZATION_ASSIGNMENT ( #322, #321, ( #108 ) ) ;
#45 = APPROVAL_ROLE ( '' ) ;
#46 = PLANE ( 'NONE',  #57 ) ;
#47 = AXIS2_PLACEMENT_3D ( 'NONE', #62, #200, #254 ) ;
#48 = LOCAL_TIME ( 9, 22, 19.00000000000000000, #65 ) ;
#49 = CC_DESIGN_PERSON_AND_ORGANIZATION_ASSIGNMENT ( #328, #96, ( #110 ) ) ;
#50 = DATE_AND_TIME ( #127, #292 ) ;
#51 = ORIENTED_EDGE ( 'NONE', *, *, #80, .F. ) ;
#52 = CARTESIAN_POINT ( 'NONE',  ( 3.356629821728757029E-15, -1.177347254121285760E-16, 0.9613769904441025194 ) ) ;
#53 = ORIENTED_EDGE ( 'NONE', *, *, #80, .T. ) ;
#54 = EDGE_LOOP ( 'NONE', ( #280, #258, #277 ) ) ;
#55 = CARTESIAN_POINT ( 'NONE',  ( 3.356629821728756240E-15, -1.599999999999992983, 0.9613769904441022973 ) ) ;
#56 = DIRECTION ( 'NONE',  ( -3.491481338843133355E-15, 1.224646799147353207E-16, -1.000000000000000000 ) ) ;
#57 = AXIS2_PLACEMENT_3D ( 'NONE', #105, #333, #270 ) ;
#58 = APPROVAL_PERSON_ORGANIZATION ( #201, #253, #172 ) ;
#59 = DIRECTION ( 'NONE',  ( -3.491481338843133355E-15, 1.224646799147353207E-16, -1.000000000000000000 ) ) ;
#60 = CARTESIAN_POINT ( 'NONE',  ( 0.0000000000000000000, 0.0000000000000000000, 0.0000000000000000000 ) ) ;
#61 = APPROVAL_STATUS ( 'not_yet_approved' ) ;
#62 = CARTESIAN_POINT ( 'NONE',  ( 1.710825856033135470E-13, -6.000769315822030937E-15, 49.00000000000000000 ) ) ;
#63 = CYLINDRICAL_SURFACE ( 'NONE', #291, 1.599999999999996314 ) ;
#64 = AXIS2_PLACEMENT_3D ( 'NONE', #287, #251, #332 ) ;
#65 = COORDINATED_UNIVERSAL_TIME_OFFSET ( 1, 0, .AHEAD. ) ;
#66 = APPROVAL_STATUS ( 'not_yet_approved' ) ;
#67 = VERTEX_POINT ( 'NONE', #299 ) ;
#68 = EDGE_CURVE ( 'NONE', #181, #203, #19, .T. ) ;
#69 = LOCAL_TIME ( 9, 22, 19.00000000000000000, #144 ) ;
#70 = DATE_AND_TIME ( #94, #118 ) ;
#71 = FACE_OUTER_BOUND ( 'NONE', #178, .T. ) ;
#72 = CARTESIAN_POINT ( 'NONE',  ( 1.705557398874255268E-13, -1.200000000000004841, 49.00000000000000000 ) ) ;
#73 = ORIENTED_EDGE ( 'NONE', *, *, #175, .F. ) ;
#74 = MECHANICAL_CONTEXT ( 'NONE', #2, 'mechanical' ) ;
#75 = CC_DESIGN_DATE_AND_TIME_ASSIGNMENT ( #324, #196, ( #214 ) ) ;
#76 = ORIENTED_EDGE ( 'NONE', *, *, #183, .T. ) ;
#77 = PLANE ( 'NONE',  #28 ) ;
#78 = PRODUCT_DEFINITION_SHAPE ( 'NONE', 'NONE',  #110 ) ;
#79 = CARTESIAN_POINT ( 'NONE',  ( 3.356629821728757029E-15, -1.177347254121285760E-16, 0.9613769904441025194 ) ) ;
#80 = EDGE_CURVE ( 'NONE', #33, #43, #297, .T. ) ;
#81 = AXIS2_PLACEMENT_3D ( 'NONE', #99, #272, #174 ) ;
#82 = CYLINDRICAL_SURFACE ( 'NONE', #64, 1.599999999999993427 ) ;
#83 = VECTOR ( 'NONE', #40, 999.9999999999998863 ) ;
#84 = ORGANIZATION ( 'UNSPECIFIED', 'UNSPECIFIED', '' ) ;
#85 = CARTESIAN_POINT ( 'NONE',  ( 1.696859930677762937E-13, -5.951783443856137509E-15, 48.60000000000000142 ) ) ;
#86 = ADVANCED_FACE ( 'NONE', ( #23 ), #20, .T. ) ;
#87 = PERSON_AND_ORGANIZATION ( #88, #84 ) ;
#88 = PERSON ( 'UNSPECIFIED', 'UNSPECIFIED', 'UNSPECIFIED', ('UNSPECIFIED'), ('UNSPECIFIED'), ('UNSPECIFIED') ) ;
#89 = ORIENTED_EDGE ( 'NONE', *, *, #261, .F. ) ;
#90 = DIRECTION ( 'NONE',  ( -3.491481338843133355E-15, 1.224646799147353207E-16, -1.000000000000000000 ) ) ;
#91 = CC_DESIGN_DATE_AND_TIME_ASSIGNMENT ( #50, #197, ( #110 ) ) ;
#92 = VERTEX_POINT ( 'NONE', #250 ) ;
#93 = CONICAL_SURFACE ( 'NONE', #274, 1.199999999999998845, 0.7853981633974507215 ) ;
#94 = CALENDAR_DATE ( 2021, 3, 9 ) ;
#95 = CIRCLE ( 'NONE', #160, 1.599999999999998312 ) ;
#96 = PERSON_AND_ORGANIZATION_ROLE ( 'creator' ) ;
#97 = ORIENTED_EDGE ( 'NONE', *, *, #261, .T. ) ;
#98 = EDGE_CURVE ( 'NONE', #106, #67, #223, .T. ) ;
#99 = CARTESIAN_POINT ( 'NONE',  ( 1.710825856033135470E-13, -6.000769315822030937E-15, 49.00000000000000000 ) ) ;
#100 = DIRECTION ( 'NONE',  ( -3.491481338843133355E-15, 1.224646799147353207E-16, -1.000000000000000000 ) ) ;
#101 = CALENDAR_DATE ( 2021, 3, 9 ) ;
#102 = CARTESIAN_POINT ( 'NONE',  ( 0.0000000000000000000, 0.0000000000000000000, 0.0000000000000000000 ) ) ;
#103 = VERTEX_POINT ( 'NONE', #152 ) ;
#104 = CARTESIAN_POINT ( 'NONE',  ( 1.710825856033135470E-13, 8.998558695971045750E-33, 49.00000000000000000 ) ) ;
#105 = CARTESIAN_POINT ( 'NONE',  ( 4.888073874380386697E-14, 1.199807826129479244E-32, 14.00000000000000000 ) ) ;
#106 = VERTEX_POINT ( 'NONE', #72 ) ;
#107 = EDGE_LOOP ( 'NONE', ( #73, #138, #236, #244 ) ) ;
#108 = PRODUCT ( '42023', '42023', '', ( #74 ) ) ;
#109 = APPROVAL_PERSON_ORGANIZATION ( #87, #271, #192 ) ;
#110 = PRODUCT_DEFINITION ( 'UNKNOWN', '', #309, #327 ) ;
#111 = DIRECTION ( 'NONE',  ( -3.491481338843133355E-15, 1.224646799147353207E-16, -1.000000000000000000 ) ) ;
#112 = VECTOR ( 'NONE', #120, 1000.000000000000000 ) ;
#113 = CARTESIAN_POINT ( 'NONE',  ( 0.0000000000000000000, 0.0000000000000000000, 0.0000000000000000000 ) ) ;
#114 = VECTOR ( 'NONE', #243, 1000.000000000000000 ) ;
#115 = EDGE_LOOP ( 'NONE', ( #176, #18 ) ) ;
#116 = DIRECTION ( 'NONE',  ( 0.0000000000000000000, 1.000000000000000000, 0.0000000000000000000 ) ) ;
#117 = AXIS2_PLACEMENT_3D ( 'NONE', #102, #100, #298 ) ;
#118 = LOCAL_TIME ( 9, 22, 19.00000000000000000, #41 ) ;
#119 = PRODUCT_RELATED_PRODUCT_CATEGORY ( 'detail', '', ( #108 ) ) ;
#120 = DIRECTION ( 'NONE',  ( -3.491481338843133355E-15, 1.224646799147353207E-16, -1.000000000000000000 ) ) ;
#121 = SECURITY_CLASSIFICATION_LEVEL ( 'unclassified' ) ;
#122 = APPROVAL_DATE_TIME ( #70, #271 ) ;
#123 = EDGE_CURVE ( 'NONE', #13, #203, #240, .T. ) ;
#124 = VECTOR ( 'NONE', #111, 1000.000000000000000 ) ;
#125 = APPLICATION_CONTEXT ( 'configuration controlled 3d designs of mechanical parts and assemblies' ) ;
#126 = DIRECTION ( 'NONE',  ( -3.491481338843133355E-15, 1.224646799147353207E-16, -1.000000000000000000 ) ) ;
#127 = CALENDAR_DATE ( 2021, 3, 9 ) ;
#128 = CARTESIAN_POINT ( 'NONE',  ( 4.888073874380386697E-14, -1.714505518806294638E-15, 14.00000000000000000 ) ) ;
#129 = APPROVAL_PERSON_ORGANIZATION ( #39, #21, #45 ) ;
#130 = EDGE_CURVE ( 'NONE', #33, #146, #227, .T. ) ;
#131 = ORIENTED_EDGE ( 'NONE', *, *, #175, .T. ) ;
#132 = APPLICATION_PROTOCOL_DEFINITION ( 'international standard', 'config_control_design', 1994, #2 ) ;
#133 = EDGE_LOOP ( 'NONE', ( #97, #156 ) ) ;
#134 = CIRCLE ( 'NONE', #202, 1.599999999999992761 ) ;
#135 = ORIENTED_EDGE ( 'NONE', *, *, #334, .T. ) ;
#136 = PLANE ( 'NONE',  #316 ) ;
#137 = DIRECTION ( 'NONE',  ( 4.275831445896958607E-31, 1.000000000000000000, 1.224646799147353207E-16 ) ) ;
#138 = ORIENTED_EDGE ( 'NONE', *, *, #331, .T. ) ;
#139 = CARTESIAN_POINT ( 'NONE',  ( 1.710825856033135470E-13, 1.199999999999992628, 49.00000000000000000 ) ) ;
#140 = EDGE_CURVE ( 'NONE', #146, #92, #228, .T. ) ;
#141 = LINE ( 'NONE', #9, #124 ) ;
#142 = CARTESIAN_POINT ( 'NONE',  ( 0.0000000000000000000, 0.0000000000000000000, 0.0000000000000000000 ) ) ;
#143 = ADVANCED_FACE ( 'NONE', ( #38 ), #278, .T. ) ;
#144 = COORDINATED_UNIVERSAL_TIME_OFFSET ( 1, 0, .AHEAD. ) ;
#145 = DIRECTION ( 'NONE',  ( 0.0000000000000000000, 1.000000000000000000, 0.0000000000000000000 ) ) ;
#146 = VERTEX_POINT ( 'NONE', #286 ) ;
#147 = CARTESIAN_POINT ( 'NONE',  ( 2.631462777062986303E-14, -1.599999999999995870, 14.00000000000000000 ) ) ;
#148 = SHAPE_DEFINITION_REPRESENTATION ( #78, #149 ) ;
#149 = ADVANCED_BREP_SHAPE_REPRESENTATION ( '42023', ( #275, #276, #170 ), #195 ) ;
#150 = EDGE_CURVE ( 'NONE', #67, #13, #141, .T. ) ;
#151 = AXIS2_PLACEMENT_3D ( 'NONE', #163, #216, #116 ) ;
#152 = CARTESIAN_POINT ( 'NONE',  ( 1.710825856033135470E-13, 1.199999999999992628, 49.00000000000000000 ) ) ;
#153 = ADVANCED_FACE ( 'NONE', ( #7 ), #208, .T. ) ;
#154 = DIRECTION ( 'NONE',  ( -3.491481338843133355E-15, 1.224646799147353207E-16, -1.000000000000000000 ) ) ;
#155 = PERSON_AND_ORGANIZATION ( #88, #84 ) ;
#156 = ORIENTED_EDGE ( 'NONE', *, *, #123, .T. ) ;
#157 = DIRECTION ( 'NONE',  ( 1.798245827342160317E-15, -0.8571673007021098911, 0.5150380749100582634 ) ) ;
#158 = ORIENTED_EDGE ( 'NONE', *, *, #150, .F. ) ;
#159 = ORIENTED_EDGE ( 'NONE', *, *, #123, .F. ) ;
#160 = AXIS2_PLACEMENT_3D ( 'NONE', #85, #59, #242 ) ;
#161 = CC_DESIGN_APPROVAL ( #253, ( #309 ) ) ;
#162 = ORIENTED_EDGE ( 'NONE', *, *, #98, .F. ) ;
#163 = CARTESIAN_POINT ( 'NONE',  ( 1.696859930677762937E-13, -5.951783443856137509E-15, 48.60000000000000142 ) ) ;
#164 = CARTESIAN_POINT ( 'NONE',  ( 1.094793093936536036E-13, -1.599999999999995870, 14.00000000000000000 ) ) ;
#165 = VECTOR ( 'NONE', #213, 1000.000000000000000 ) ;
#166 = CARTESIAN_POINT ( 'NONE',  ( 4.888073874380386697E-14, 1.599999999999992539, 14.00000000000000000 ) ) ;
#167 = CARTESIAN_POINT ( 'NONE',  ( 4.888073874380386697E-14, -1.714505518806294638E-15, 14.00000000000000000 ) ) ;
#168 = PERSON_AND_ORGANIZATION ( #88, #84 ) ;
#169 = CIRCLE ( 'NONE', #5, 1.199999999999998845 ) ;
#170 = AXIS2_PLACEMENT_3D ( 'NONE', #6, #231, #1 ) ;
#171 = CALENDAR_DATE ( 2021, 3, 9 ) ;
#172 = APPROVAL_ROLE ( '' ) ;
#173 = ORIENTED_EDGE ( 'NONE', *, *, #130, .F. ) ;
#174 = DIRECTION ( 'NONE',  ( 0.0000000000000000000, 1.000000000000000000, 0.0000000000000000000 ) ) ;
#175 = EDGE_CURVE ( 'NONE', #43, #92, #12, .T. ) ;
#176 = ORIENTED_EDGE ( 'NONE', *, *, #211, .F. ) ;
#177 = AXIS2_PLACEMENT_3D ( 'NONE', #184, #313, #266 ) ;
#178 = EDGE_LOOP ( 'NONE', ( #295, #335, #4 ) ) ;
#179 = DIRECTION ( 'NONE',  ( 0.0000000000000000000, 1.000000000000000000, 0.0000000000000000000 ) ) ;
#180 = ORIENTED_EDGE ( 'NONE', *, *, #186, .F. ) ;
#181 = VERTEX_POINT ( 'NONE', #318 ) ;
#182 = DIRECTION ( 'NONE',  ( -3.491481338843133355E-15, 1.224646799147353207E-16, -1.000000000000000000 ) ) ;
#183 = EDGE_CURVE ( 'NONE', #67, #181, #95, .T. ) ;
#184 = CARTESIAN_POINT ( 'NONE',  ( 3.356629821728757029E-15, -1.177347254121285760E-16, 0.9613769904441025194 ) ) ;
#185 = AXIS2_PLACEMENT_3D ( 'NONE', #167, #269, #248 ) ;
#186 = EDGE_CURVE ( 'NONE', #181, #67, #190, .T. ) ;
#187 = ORIENTED_EDGE ( 'NONE', *, *, #334, .F. ) ;
#188 = CARTESIAN_POINT ( 'NONE',  ( 3.552573309592333502E-15, 1.599999999999992539, 0.9613769904441027414 ) ) ;
#189 = CALENDAR_DATE ( 2021, 3, 9 ) ;
#190 = CIRCLE ( 'NONE', #151, 1.599999999999998312 ) ;
#191 = FACE_OUTER_BOUND ( 'NONE', #315, .T. ) ;
#192 = APPROVAL_ROLE ( '' ) ;
#193 = PERSON_AND_ORGANIZATION_ROLE ( 'classification_officer' ) ;
#194 = AXIS2_PLACEMENT_3D ( 'NONE', #52, #154, #259 ) ;
#195 =( GEOMETRIC_REPRESENTATION_CONTEXT ( 3 ) GLOBAL_UNCERTAINTY_ASSIGNED_CONTEXT ( ( #14 ) ) GLOBAL_UNIT_ASSIGNED_CONTEXT ( ( #204, #256, #209 ) ) REPRESENTATION_CONTEXT ( 'NONE', 'WORKASPACE' ) );
#196 = DATE_TIME_ROLE ( 'classification_date' ) ;
#197 = DATE_TIME_ROLE ( 'creation_date' ) ;
#198 = DIRECTION ( 'NONE',  ( 3.491481338843133355E-15, -1.224646799147353207E-16, 1.000000000000000000 ) ) ;
#199 = CARTESIAN_POINT ( 'NONE',  ( 1.712295432192112242E-13, -1.200000000000004841, 49.00000000000000000 ) ) ;
#200 = DIRECTION ( 'NONE',  ( -3.491481338843133355E-15, 1.224646799147353207E-16, -1.000000000000000000 ) ) ;
#201 = PERSON_AND_ORGANIZATION ( #88, #84 ) ;
#202 = AXIS2_PLACEMENT_3D ( 'NONE', #79, #182, #283 ) ;
#203 = VERTEX_POINT ( 'NONE', #312 ) ;
#204 =( LENGTH_UNIT ( ) NAMED_UNIT ( * ) SI_UNIT ( .MILLI., .METRE. ) );
#205 = ORIENTED_EDGE ( 'NONE', *, *, #331, .F. ) ;
#206 = CIRCLE ( 'NONE', #47, 1.199999999999998845 ) ;
#207 = LOCAL_TIME ( 9, 22, 19.00000000000000000, #224 ) ;
#208 = CYLINDRICAL_SURFACE ( 'NONE', #301, 1.599999999999993427 ) ;
#209 =( NAMED_UNIT ( * ) SI_UNIT ( $, .STERADIAN. ) SOLID_ANGLE_UNIT ( ) );
#210 = EDGE_LOOP ( 'NONE', ( #53, #131, #282, #173 ) ) ;
#211 = EDGE_CURVE ( 'NONE', #103, #106, #169, .T. ) ;
#212 = ORIENTED_EDGE ( 'NONE', *, *, #68, .T. ) ;
#213 = DIRECTION ( 'NONE',  ( -3.491481338843133355E-15, 1.224646799147353207E-16, -1.000000000000000000 ) ) ;
#214 = SECURITY_CLASSIFICATION ( '', '', #121 ) ;
#215 = LINE ( 'NONE', #188, #83 ) ;
#216 = DIRECTION ( 'NONE',  ( -3.491481338843133355E-15, 1.224646799147353207E-16, -1.000000000000000000 ) ) ;
#217 = CARTESIAN_POINT ( 'NONE',  ( 1.710825856033135470E-13, -6.000769315822030937E-15, 49.00000000000000000 ) ) ;
#218 = DIRECTION ( 'NONE',  ( 4.275831445896958607E-31, 1.000000000000000000, 1.224646799147353207E-16 ) ) ;
#219 = CC_DESIGN_APPROVAL ( #21, ( #214 ) ) ;
#220 = CARTESIAN_POINT ( 'NONE',  ( 3.356629821728757029E-15, -1.177347254121285760E-16, 0.9613769904441025194 ) ) ;
#221 = CARTESIAN_POINT ( 'NONE',  ( 4.888073874380386697E-14, -1.714505518806294638E-15, 14.00000000000000000 ) ) ;
#222 = EDGE_CURVE ( 'NONE', #106, #103, #206, .T. ) ;
#223 = LINE ( 'NONE', #199, #267 ) ;
#224 = COORDINATED_UNIVERSAL_TIME_OFFSET ( 1, 0, .AHEAD. ) ;
#225 = CC_DESIGN_PERSON_AND_ORGANIZATION_ASSIGNMENT ( #155, #319, ( #309 ) ) ;
#226 = APPROVAL_DATE_TIME ( #300, #253 ) ;
#227 = LINE ( 'NONE', #257, #11 ) ;
#228 = CIRCLE ( 'NONE', #194, 1.599999999999992761 ) ;
#229 = ORIENTED_EDGE ( 'NONE', *, *, #98, .T. ) ;
#230 = CARTESIAN_POINT ( 'NONE',  ( 4.888073874380386697E-14, -1.714505518806294638E-15, 14.00000000000000000 ) ) ;
#231 = DIRECTION ( 'NONE',  ( 0.0000000000000000000, 0.0000000000000000000, 1.000000000000000000 ) ) ;
#232 = DIRECTION ( 'NONE',  ( 4.275831445896958607E-31, 1.000000000000000000, 1.224646799147353207E-16 ) ) ;
#233 = DIRECTION ( 'NONE',  ( -4.275831445896958607E-31, -1.000000000000000000, -1.224646799147353207E-16 ) ) ;
#234 = AXIS2_PLACEMENT_3D ( 'NONE', #220, #264, #288 ) ;
#235 = CC_DESIGN_APPROVAL ( #271, ( #110 ) ) ;
#236 = ORIENTED_EDGE ( 'NONE', *, *, #130, .T. ) ;
#237 = CC_DESIGN_PERSON_AND_ORGANIZATION_ASSIGNMENT ( #168, #193, ( #214 ) ) ;
#238 = DIRECTION ( 'NONE',  ( 0.0000000000000000000, 1.000000000000000000, 0.0000000000000000000 ) ) ;
#239 = CARTESIAN_POINT ( 'NONE',  ( 1.959434878635750192E-16, -1.599999999999993427, -1.959434878635763751E-16 ) ) ;
#240 = CIRCLE ( 'NONE', #326, 1.599999999999994316 ) ;
#241 = ORIENTED_EDGE ( 'NONE', *, *, #222, .T. ) ;
#242 = DIRECTION ( 'NONE',  ( 0.0000000000000000000, 1.000000000000000000, 0.0000000000000000000 ) ) ;
#243 = DIRECTION ( 'NONE',  ( -2.468850131082259033E-15, 0.7071067811865493491, -0.7071067811865456854 ) ) ;
#244 = ORIENTED_EDGE ( 'NONE', *, *, #294, .F. ) ;
#245 = DIRECTION ( 'NONE',  ( -3.491481338843133355E-15, 1.224646799147353207E-16, -1.000000000000000000 ) ) ;
#246 = APPLICATION_PROTOCOL_DEFINITION ( 'international standard', 'config_control_design', 1994, #125 ) ;
#247 = ADVANCED_FACE ( 'NONE', ( #71 ), #22, .T. ) ;
#248 = DIRECTION ( 'NONE',  ( 0.0000000000000000000, 1.000000000000000000, 0.0000000000000000000 ) ) ;
#249 = VECTOR ( 'NONE', #157, 1000.000000000000000 ) ;
#250 = CARTESIAN_POINT ( 'NONE',  ( 3.356629821728756240E-15, -1.599999999999992983, 0.9613769904441022973 ) ) ;
#251 = DIRECTION ( 'NONE',  ( -3.491481338843133355E-15, 1.224646799147353207E-16, -1.000000000000000000 ) ) ;
#252 = CLOSED_SHELL ( 'NONE', ( #34, #247, #143, #153, #310 ) ) ;
#253 = APPROVAL ( #66, 'UNSPECIFIED' ) ;
#254 = DIRECTION ( 'NONE',  ( 0.0000000000000000000, 1.000000000000000000, 0.0000000000000000000 ) ) ;
#255 = FACE_OUTER_BOUND ( 'NONE', #133, .T. ) ;
#256 =( NAMED_UNIT ( * ) PLANE_ANGLE_UNIT ( ) SI_UNIT ( $, .RADIAN. ) );
#257 = CARTESIAN_POINT ( 'NONE',  ( 6.841330313435105920E-31, 1.599999999999993427, 1.959434878635757095E-16 ) ) ;
#258 = ORIENTED_EDGE ( 'NONE', *, *, #265, .T. ) ;
#259 = DIRECTION ( 'NONE',  ( 4.814824860968111528E-31, 1.000000000000000000, 1.355252715606886705E-16 ) ) ;
#260 = ORIENTED_EDGE ( 'NONE', *, *, #186, .T. ) ;
#261 = EDGE_CURVE ( 'NONE', #203, #13, #16, .T. ) ;
#262 = DIRECTION ( 'NONE',  ( 0.0000000000000000000, 1.000000000000000000, 0.0000000000000000000 ) ) ;
#263 = CC_DESIGN_SECURITY_CLASSIFICATION ( #214, ( #309 ) ) ;
#264 = DIRECTION ( 'NONE',  ( 3.491481338843133355E-15, -1.224646799147353207E-16, 1.000000000000000000 ) ) ;
#265 = EDGE_CURVE ( 'NONE', #15, #92, #336, .T. ) ;
#266 = DIRECTION ( 'NONE',  ( -4.814824860968111528E-31, -1.000000000000000000, -1.355252715606886705E-16 ) ) ;
#267 = VECTOR ( 'NONE', #273, 1000.000000000000000 ) ;
#268 = ADVANCED_FACE ( 'NONE', ( #3 ), #93, .T. ) ;
#269 = DIRECTION ( 'NONE',  ( -3.491481338843133355E-15, 1.224646799147353207E-16, -1.000000000000000000 ) ) ;
#270 = DIRECTION ( 'NONE',  ( -4.275831445896958607E-31, -1.000000000000000000, -1.224646799147353207E-16 ) ) ;
#271 = APPROVAL ( #61, 'UNSPECIFIED' ) ;
#272 = DIRECTION ( 'NONE',  ( -3.491481338843133355E-15, 1.224646799147353207E-16, -1.000000000000000000 ) ) ;
#273 = DIRECTION ( 'NONE',  ( -2.382254525458710370E-15, -0.7071067811865491270, -0.7071067811865459074 ) ) ;
#274 = AXIS2_PLACEMENT_3D ( 'NONE', #29, #311, #179 ) ;
#275 = MANIFOLD_SOLID_BREP ( 'Corps-Déplacer/Copier1[1]', #308 ) ;
#276 = MANIFOLD_SOLID_BREP ( 'Corps-Déplacer/Copier1[2]', #252 ) ;
#277 = ORIENTED_EDGE ( 'NONE', *, *, #294, .T. ) ;
#278 = CONICAL_SURFACE ( 'NONE', #177, 1.599999999999992761, 1.029744258676649649 ) ;
#279 = FACE_OUTER_BOUND ( 'NONE', #303, .T. ) ;
#280 = ORIENTED_EDGE ( 'NONE', *, *, #25, .F. ) ;
#281 = EDGE_LOOP ( 'NONE', ( #30, #229, #180, #187 ) ) ;
#282 = ORIENTED_EDGE ( 'NONE', *, *, #140, .F. ) ;
#283 = DIRECTION ( 'NONE',  ( 4.814824860968111528E-31, 1.000000000000000000, 1.355252715606886705E-16 ) ) ;
#284 = AXIS2_PLACEMENT_3D ( 'NONE', #221, #325, #145 ) ;
#285 = CARTESIAN_POINT ( 'NONE',  ( 4.888073874380386697E-14, 1.199807826129479244E-32, 14.00000000000000000 ) ) ;
#286 = CARTESIAN_POINT ( 'NONE',  ( 3.552573309592333502E-15, 1.599999999999992539, 0.9613769904441027414 ) ) ;
#287 = CARTESIAN_POINT ( 'NONE',  ( 0.0000000000000000000, 0.0000000000000000000, 0.0000000000000000000 ) ) ;
#288 = DIRECTION ( 'NONE',  ( -4.814824860968111528E-31, -1.000000000000000000, -1.355252715606886705E-16 ) ) ;
#289 = DIRECTION ( 'NONE',  ( -3.491481338843133355E-15, 1.224646799147353207E-16, -1.000000000000000000 ) ) ;
#290 = DIRECTION ( 'NONE',  ( 0.0000000000000000000, 1.000000000000000000, 0.0000000000000000000 ) ) ;
#291 = AXIS2_PLACEMENT_3D ( 'NONE', #142, #245, #218 ) ;
#292 = LOCAL_TIME ( 9, 22, 19.00000000000000000, #24 ) ;
#293 = LINE ( 'NONE', #139, #114 ) ;
#294 = EDGE_CURVE ( 'NONE', #92, #146, #134, .T. ) ;
#295 = ORIENTED_EDGE ( 'NONE', *, *, #265, .F. ) ;
#296 = APPROVAL_STATUS ( 'not_yet_approved' ) ;
#297 = CIRCLE ( 'NONE', #284, 1.599999999999994316 ) ;
#298 = DIRECTION ( 'NONE',  ( 4.275831445896958607E-31, 1.000000000000000000, 1.224646799147353207E-16 ) ) ;
#299 = CARTESIAN_POINT ( 'NONE',  ( 1.094793093936535026E-13, -1.600000000000004086, 48.60000000000000142 ) ) ;
#300 = DATE_AND_TIME ( #101, #207 ) ;
#301 = AXIS2_PLACEMENT_3D ( 'NONE', #60, #32, #137 ) ;
#302 = PERSON_AND_ORGANIZATION_ROLE ( 'creator' ) ;
#303 = EDGE_LOOP ( 'NONE', ( #51, #205 ) ) ;
#304 = ADVANCED_FACE ( 'NONE', ( #314 ), #42, .T. ) ;
#305 = ORIENTED_EDGE ( 'NONE', *, *, #150, .T. ) ;
#306 = ADVANCED_FACE ( 'NONE', ( #255 ), #46, .F. ) ;
#307 = EDGE_LOOP ( 'NONE', ( #162, #241, #135, #37 ) ) ;
#308 = CLOSED_SHELL ( 'NONE', ( #268, #86, #306, #10, #304, #329 ) ) ;
#309 = PRODUCT_DEFINITION_FORMATION_WITH_SPECIFIED_SOURCE ( 'ANY', '', #108, .NOT_KNOWN. ) ;
#310 = ADVANCED_FACE ( 'NONE', ( #279 ), #136, .T. ) ;
#311 = DIRECTION ( 'NONE',  ( -3.491481338843133355E-15, 1.224646799147353207E-16, -1.000000000000000000 ) ) ;
#312 = CARTESIAN_POINT ( 'NONE',  ( 4.888073874380386697E-14, 1.599999999999992539, 14.00000000000000000 ) ) ;
#313 = DIRECTION ( 'NONE',  ( 3.491481338843133355E-15, -1.224646799147353207E-16, 1.000000000000000000 ) ) ;
#314 = FACE_OUTER_BOUND ( 'NONE', #307, .T. ) ;
#315 = EDGE_LOOP ( 'NONE', ( #158, #76, #212, #159 ) ) ;
#316 = AXIS2_PLACEMENT_3D ( 'NONE', #285, #198, #233 ) ;
#317 = CIRCLE ( 'NONE', #35, 1.599999999999994316 ) ;
#318 = CARTESIAN_POINT ( 'NONE',  ( 1.696859930677762937E-13, 1.599999999999992539, 48.60000000000000142 ) ) ;
#319 = PERSON_AND_ORGANIZATION_ROLE ( 'design_supplier' ) ;
#320 = CC_DESIGN_PERSON_AND_ORGANIZATION_ASSIGNMENT ( #26, #302, ( #309 ) ) ;
#321 = PERSON_AND_ORGANIZATION_ROLE ( 'design_owner' ) ;
#322 = PERSON_AND_ORGANIZATION ( #88, #84 ) ;
#323 = APPROVAL_DATE_TIME ( #17, #21 ) ;
#324 = DATE_AND_TIME ( #189, #69 ) ;
#325 = DIRECTION ( 'NONE',  ( -3.491481338843133355E-15, 1.224646799147353207E-16, -1.000000000000000000 ) ) ;
#326 = AXIS2_PLACEMENT_3D ( 'NONE', #230, #56, #238 ) ;
#327 = DESIGN_CONTEXT ( 'detailed design', #125, 'design' ) ;
#328 = PERSON_AND_ORGANIZATION ( #88, #84 ) ;
#329 = ADVANCED_FACE ( 'NONE', ( #31 ), #77, .F. ) ;
#330 = CARTESIAN_POINT ( 'NONE',  ( 6.841330313435118181E-31, 1.599999999999996314, 1.959434878635760546E-16 ) ) ;
#331 = EDGE_CURVE ( 'NONE', #43, #33, #317, .T. ) ;
#332 = DIRECTION ( 'NONE',  ( 4.275831445896958607E-31, 1.000000000000000000, 1.224646799147353207E-16 ) ) ;
#333 = DIRECTION ( 'NONE',  ( 3.491481338843133355E-15, -1.224646799147353207E-16, 1.000000000000000000 ) ) ;
#334 = EDGE_CURVE ( 'NONE', #103, #181, #293, .T. ) ;
#335 = ORIENTED_EDGE ( 'NONE', *, *, #25, .T. ) ;
#336 = LINE ( 'NONE', #55, #249 ) ;
#337 = EDGE_LOOP ( 'NONE', ( #260, #305, #89, #8 ) ) ;
ENDSEC;
END-ISO-10303-21;
