ISO-10303-21;
HEADER;
FILE_DESCRIPTION (( 'STEP AP203' ),
    '1' );
FILE_NAME ('42022.step',
    '2021-09-02T13:22:52',
    ( '' ),
    ( '' ),
    'SwSTEP 2.0',
    'SolidWorks 2019',
    '' );
FILE_SCHEMA (( 'CONFIG_CONTROL_DESIGN' ));
ENDSEC;

DATA;
#1 = ADVANCED_FACE ( 'NONE', ( #275 ), #129, .T. ) ;
#2 = PERSON_AND_ORGANIZATION ( #335, #150 ) ;
#3 = PERSON_AND_ORGANIZATION ( #335, #150 ) ;
#4 = CC_DESIGN_APPROVAL ( #248, ( #12 ) ) ;
#5 = DIRECTION ( 'NONE',  ( 4.275831445896958607E-31, 1.000000000000000000, 1.224646799147353207E-16 ) ) ;
#6 = CARTESIAN_POINT ( 'NONE',  ( 3.122849337825735628E-16, -2.549999999999996714, -3.122849337825757322E-16 ) ) ;
#7 = ORIENTED_EDGE ( 'NONE', *, *, #225, .T. ) ;
#8 = APPROVAL_PERSON_ORGANIZATION ( #28, #169, #327 ) ;
#9 = APPROVAL_DATE_TIME ( #321, #169 ) ;
#10 = CARTESIAN_POINT ( 'NONE',  ( 3.002673951405094433E-13, 1.949999999999988409, 86.00000000000000000 ) ) ;
#11 = DIRECTION ( 'NONE',  ( -4.275831445896958607E-31, -1.000000000000000000, -1.224646799147353207E-16 ) ) ;
#12 = PRODUCT_DEFINITION ( 'UNKNOWN', '', #44, #80 ) ;
#13 = CARTESIAN_POINT ( 'NONE',  ( 5.349628778380208573E-15, -1.876397186255799749E-16, 1.532194578520288841 ) ) ;
#14 = EDGE_CURVE ( 'NONE', #284, #296, #73, .T. ) ;
#15 = DIRECTION ( 'NONE',  ( -3.491481338843133355E-15, 1.224646799147353207E-16, -1.000000000000000000 ) ) ;
#16 = LINE ( 'NONE', #325, #222 ) ;
#17 = MECHANICAL_CONTEXT ( 'NONE', #251, 'mechanical' ) ;
#18 = CC_DESIGN_PERSON_AND_ORGANIZATION_ASSIGNMENT ( #120, #191, ( #12 ) ) ;
#19 = ORIENTED_EDGE ( 'NONE', *, *, #100, .F. ) ;
#20 = EDGE_CURVE ( 'NONE', #284, #189, #106, .T. ) ;
#21 = AXIS2_PLACEMENT_3D ( 'NONE', #136, #240, #174 ) ;
#22 = ORIENTED_EDGE ( 'NONE', *, *, #300, .F. ) ;
#23 = CARTESIAN_POINT ( 'NONE',  ( 0.0000000000000000000, 0.0000000000000000000, 0.0000000000000000000 ) ) ;
#24 = PERSON_AND_ORGANIZATION_ROLE ( 'design_owner' ) ;
#25 = ORIENTED_EDGE ( 'NONE', *, *, #102, .F. ) ;
#26 = CONICAL_SURFACE ( 'NONE', #295, 1.949999999999999067, 0.7853981633974453924 ) ;
#27 = CARTESIAN_POINT ( 'NONE',  ( 1.815570296198429345E-13, -6.368163355566236381E-15, 52.00000000000000000 ) ) ;
#28 = PERSON_AND_ORGANIZATION ( #335, #150 ) ;
#29 = EDGE_CURVE ( 'NONE', #135, #189, #98, .T. ) ;
#30 = APPROVAL_PERSON_ORGANIZATION ( #294, #53, #292 ) ;
#31 = DIRECTION ( 'NONE',  ( -3.491481338843133355E-15, 1.224646799147353207E-16, -1.000000000000000000 ) ) ;
#32 = APPROVAL_STATUS ( 'not_yet_approved' ) ;
#33 = VECTOR ( 'NONE', #200, 1000.000000000000000 ) ;
#34 = CARTESIAN_POINT ( 'NONE',  ( 2.981725063372035507E-13, -1.045848366471839522E-14, 85.39999999999999147 ) ) ;
#35 = EDGE_CURVE ( 'NONE', #208, #179, #16, .T. ) ;
#36 = DIRECTION ( 'NONE',  ( -3.491481338843133355E-15, 1.224646799147353207E-16, -1.000000000000000000 ) ) ;
#37 = EDGE_CURVE ( 'NONE', #244, #208, #178, .T. ) ;
#38 = CALENDAR_DATE ( 2021, 2, 9 ) ;
#39 = DATE_AND_TIME ( #262, #84 ) ;
#40 = VERTEX_POINT ( 'NONE', #151 ) ;
#41 = EDGE_LOOP ( 'NONE', ( #107, #42, #65, #19 ) ) ;
#42 = ORIENTED_EDGE ( 'NONE', *, *, #91, .T. ) ;
#43 = CLOSED_SHELL ( 'NONE', ( #302, #144, #126, #323, #308, #314 ) ) ;
#44 = PRODUCT_DEFINITION_FORMATION_WITH_SPECIFIED_SOURCE ( 'ANY', '', #266, .NOT_KNOWN. ) ;
#45 = ORIENTED_EDGE ( 'NONE', *, *, #214, .T. ) ;
#46 = APPLICATION_PROTOCOL_DEFINITION ( 'international standard', 'config_control_design', 1994, #61 ) ;
#47 = DIRECTION ( 'NONE',  ( 3.491481338843133355E-15, -1.224646799147353207E-16, 1.000000000000000000 ) ) ;
#48 = PERSON_AND_ORGANIZATION ( #335, #150 ) ;
#49 = CARTESIAN_POINT ( 'NONE',  ( 1.815570296198429345E-13, 2.549999999999988276, 52.00000000000000000 ) ) ;
#50 = EDGE_LOOP ( 'NONE', ( #22, #45, #181 ) ) ;
#51 = DIRECTION ( 'NONE',  ( 0.0000000000000000000, 1.000000000000000000, 0.0000000000000000000 ) ) ;
#52 = DIRECTION ( 'NONE',  ( -3.491481338843133355E-15, 1.224646799147353207E-16, -1.000000000000000000 ) ) ;
#53 = APPROVAL ( #85, 'UNSPECIFIED' ) ;
#54 = AXIS2_PLACEMENT_3D ( 'NONE', #27, #52, #228 ) ;
#55 = CYLINDRICAL_SURFACE ( 'NONE', #74, 2.549999999999991385 ) ;
#56 = CARTESIAN_POINT ( 'NONE',  ( 0.0000000000000000000, 0.0000000000000000000, 0.0000000000000000000 ) ) ;
#57 = MANIFOLD_SOLID_BREP ( 'Corps-Déplacer/Copier1[1]', #43 ) ;
#58 = CARTESIAN_POINT ( 'NONE',  ( 3.002673951405094433E-13, 1.949999999999988409, 86.00000000000000000 ) ) ;
#59 = AXIS2_PLACEMENT_3D ( 'NONE', #253, #291, #108 ) ;
#60 = EDGE_LOOP ( 'NONE', ( #139, #176 ) ) ;
#61 = APPLICATION_CONTEXT ( 'configuration controlled 3d designs of mechanical parts and assemblies' ) ;
#62 = DATE_TIME_ROLE ( 'creation_date' ) ;
#63 = VERTEX_POINT ( 'NONE', #197 ) ;
#64 = FACE_OUTER_BOUND ( 'NONE', #101, .T. ) ;
#65 = ORIENTED_EDGE ( 'NONE', *, *, #35, .T. ) ;
#66 = CALENDAR_DATE ( 2021, 2, 9 ) ;
#67 = AXIS2_PLACEMENT_3D ( 'NONE', #13, #261, #235 ) ;
#68 = ORIENTED_EDGE ( 'NONE', *, *, #204, .T. ) ;
#69 =( NAMED_UNIT ( * ) SI_UNIT ( $, .STERADIAN. ) SOLID_ANGLE_UNIT ( ) );
#70 = ORIENTED_EDGE ( 'NONE', *, *, #35, .F. ) ;
#71 = PRODUCT_RELATED_PRODUCT_CATEGORY ( 'detail', '', ( #266 ) ) ;
#72 =( LENGTH_UNIT ( ) NAMED_UNIT ( * ) SI_UNIT ( .MILLI., .METRE. ) );
#73 = CIRCLE ( 'NONE', #54, 2.549999999999994937 ) ;
#74 = AXIS2_PLACEMENT_3D ( 'NONE', #195, #309, #286 ) ;
#75 = EDGE_LOOP ( 'NONE', ( #25, #320, #265, #155 ) ) ;
#76 = EDGE_CURVE ( 'NONE', #296, #284, #249, .T. ) ;
#77 = CYLINDRICAL_SURFACE ( 'NONE', #160, 2.549999999999996714 ) ;
#78 = CARTESIAN_POINT ( 'NONE',  ( 3.002673951405094433E-13, -1.053196247266723694E-14, 86.00000000000000000 ) ) ;
#79 = PLANE ( 'NONE',  #145 ) ;
#80 = DESIGN_CONTEXT ( 'detailed design', #61, 'design' ) ;
#81 = EDGE_CURVE ( 'NONE', #244, #63, #93, .T. ) ;
#82 = FACE_OUTER_BOUND ( 'NONE', #232, .T. ) ;
#83 = DIRECTION ( 'NONE',  ( -2.382254525458723780E-15, -0.7071067811865453523, -0.7071067811865496822 ) ) ;
#84 = LOCAL_TIME ( 15, 22, 52.00000000000000000, #317 ) ;
#85 = APPROVAL_STATUS ( 'not_yet_approved' ) ;
#86 = FACE_OUTER_BOUND ( 'NONE', #41, .T. ) ;
#87 = CARTESIAN_POINT ( 'NONE',  ( 1.815570296198429345E-13, -6.368163355566236381E-15, 52.00000000000000000 ) ) ;
#88 = CC_DESIGN_DATE_AND_TIME_ASSIGNMENT ( #297, #62, ( #12 ) ) ;
#89 = ORIENTED_EDGE ( 'NONE', *, *, #29, .F. ) ;
#90 = FACE_OUTER_BOUND ( 'NONE', #280, .T. ) ;
#91 = EDGE_CURVE ( 'NONE', #184, #208, #274, .T. ) ;
#92 = DIRECTION ( 'NONE',  ( -3.491481338843133355E-15, 1.224646799147353207E-16, -1.000000000000000000 ) ) ;
#93 = CIRCLE ( 'NONE', #319, 1.949999999999999067 ) ;
#94 = CC_DESIGN_SECURITY_CLASSIFICATION ( #246, ( #44 ) ) ;
#95 = ORIENTED_EDGE ( 'NONE', *, *, #81, .F. ) ;
#96 = DIRECTION ( 'NONE',  ( 0.0000000000000000000, 1.000000000000000000, 0.0000000000000000000 ) ) ;
#97 = APPROVAL_ROLE ( '' ) ;
#98 = CIRCLE ( 'NONE', #67, 2.549999999999988276 ) ;
#99 = VECTOR ( 'NONE', #149, 1000.000000000000000 ) ;
#100 = EDGE_CURVE ( 'NONE', #329, #179, #133, .T. ) ;
#101 = EDGE_LOOP ( 'NONE', ( #95, #322 ) ) ;
#102 = EDGE_CURVE ( 'NONE', #63, #184, #202, .T. ) ;
#103 = ADVANCED_BREP_SHAPE_REPRESENTATION ( '42022', ( #57, #162, #306 ), #180 ) ;
#104 = DIRECTION ( 'NONE',  ( -3.491481338843133355E-15, 1.224646799147353207E-16, -1.000000000000000000 ) ) ;
#105 = DIRECTION ( 'NONE',  ( 3.491481338843133355E-15, -1.224646799147353207E-16, 1.000000000000000000 ) ) ;
#106 = LINE ( 'NONE', #112, #33 ) ;
#107 = ORIENTED_EDGE ( 'NONE', *, *, #143, .F. ) ;
#108 = DIRECTION ( 'NONE',  ( 0.0000000000000000000, 1.000000000000000000, 0.0000000000000000000 ) ) ;
#109 = VECTOR ( 'NONE', #83, 1000.000000000000000 ) ;
#110 = CC_DESIGN_APPROVAL ( #169, ( #246 ) ) ;
#111 = DIRECTION ( 'NONE',  ( 0.0000000000000000000, 0.0000000000000000000, 1.000000000000000000 ) ) ;
#112 = CARTESIAN_POINT ( 'NONE',  ( 1.090337018703720775E-30, 2.549999999999991385, 3.122849337825740066E-16 ) ) ;
#113 = ORIENTED_EDGE ( 'NONE', *, *, #81, .T. ) ;
#114 = EDGE_LOOP ( 'NONE', ( #331, #209, #7 ) ) ;
#115 = ORIENTED_EDGE ( 'NONE', *, *, #268, .T. ) ;
#116 = FACE_OUTER_BOUND ( 'NONE', #114, .T. ) ;
#117 = DIRECTION ( 'NONE',  ( -3.491481338843133355E-15, 1.224646799147353207E-16, -1.000000000000000000 ) ) ;
#118 = PERSON_AND_ORGANIZATION ( #335, #150 ) ;
#119 = AXIS2_PLACEMENT_3D ( 'NONE', #199, #259, #11 ) ;
#120 = PERSON_AND_ORGANIZATION ( #335, #150 ) ;
#121 = DIRECTION ( 'NONE',  ( 1.903218546456022717E-15, 0.8571673007021097801, 0.5150380749100585964 ) ) ;
#122 = PERSON_AND_ORGANIZATION_ROLE ( 'creator' ) ;
#123 = PERSON_AND_ORGANIZATION_ROLE ( 'classification_officer' ) ;
#124 = AXIS2_PLACEMENT_3D ( 'NONE', #173, #92, #279 ) ;
#125 = ADVANCED_FACE ( 'NONE', ( #234 ), #79, .T. ) ;
#126 = ADVANCED_FACE ( 'NONE', ( #131 ), #289, .F. ) ;
#127 = CARTESIAN_POINT ( 'NONE',  ( 3.122849337825729712E-16, -2.549999999999991385, -3.122849337825750912E-16 ) ) ;
#128 = CARTESIAN_POINT ( 'NONE',  ( 5.349628778380207784E-15, -2.549999999999988276, 1.532194578520288619 ) ) ;
#129 = CONICAL_SURFACE ( 'NONE', #336, 2.549999999999988276, 1.029744258676649649 ) ;
#130 = UNCERTAINTY_MEASURE_WITH_UNIT (LENGTH_MEASURE( 1.000000000000000082E-05 ), #72, 'distance_accuracy_value', 'NONE');
#131 = FACE_OUTER_BOUND ( 'NONE', #270, .T. ) ;
#132 = CC_DESIGN_PERSON_AND_ORGANIZATION_ASSIGNMENT ( #3, #122, ( #44 ) ) ;
#133 = CIRCLE ( 'NONE', #59, 2.549999999999994937 ) ;
#134 = APPROVAL_DATE_TIME ( #39, #53 ) ;
#135 = VERTEX_POINT ( 'NONE', #227 ) ;
#136 = CARTESIAN_POINT ( 'NONE',  ( 2.981725063372035507E-13, -1.045848366471839522E-14, 85.39999999999999147 ) ) ;
#137 = EDGE_CURVE ( 'NONE', #296, #135, #207, .T. ) ;
#138 = LOCAL_TIME ( 15, 22, 52.00000000000000000, #301 ) ;
#139 = ORIENTED_EDGE ( 'NONE', *, *, #14, .F. ) ;
#140 = PERSON_AND_ORGANIZATION ( #335, #150 ) ;
#141 = DIRECTION ( 'NONE',  ( -3.021066579430971991E-31, -1.000000000000000000, -8.503546450866740258E-17 ) ) ;
#142 = CLOSED_SHELL ( 'NONE', ( #168, #164, #1, #278, #125 ) ) ;
#143 = EDGE_CURVE ( 'NONE', #184, #329, #220, .T. ) ;
#144 = ADVANCED_FACE ( 'NONE', ( #313 ), #77, .T. ) ;
#145 = AXIS2_PLACEMENT_3D ( 'NONE', #148, #105, #324 ) ;
#146 = CARTESIAN_POINT ( 'NONE',  ( 2.401770529123057907E-13, -2.550000000000001599, 52.00000000000000000 ) ) ;
#147 = DIRECTION ( 'NONE',  ( 0.0000000000000000000, 1.000000000000000000, 0.0000000000000000000 ) ) ;
#148 = CARTESIAN_POINT ( 'NONE',  ( 1.815570296198429345E-13, 1.912193722893855039E-32, 52.00000000000000000 ) ) ;
#149 = DIRECTION ( 'NONE',  ( 1.798245827342160317E-15, -0.8571673007021098911, 0.5150380749100582634 ) ) ;
#150 = ORGANIZATION ( 'UNSPECIFIED', 'UNSPECIFIED', '' ) ;
#151 = CARTESIAN_POINT ( 'NONE',  ( 0.0000000000000000000, 0.0000000000000000000, 0.0000000000000000000 ) ) ;
#152 = CARTESIAN_POINT ( 'NONE',  ( 2.981725063372035507E-13, 2.549999999999988276, 85.39999999999999147 ) ) ;
#153 = ORIENTED_EDGE ( 'NONE', *, *, #268, .F. ) ;
#154 = AXIS2_PLACEMENT_3D ( 'NONE', #78, #36, #258 ) ;
#155 = ORIENTED_EDGE ( 'NONE', *, *, #91, .F. ) ;
#156 = ORIENTED_EDGE ( 'NONE', *, *, #100, .T. ) ;
#157 = PLANE ( 'NONE',  #254 ) ;
#158 = ORIENTED_EDGE ( 'NONE', *, *, #76, .T. ) ;
#159 = CC_DESIGN_PERSON_AND_ORGANIZATION_ASSIGNMENT ( #48, #123, ( #246 ) ) ;
#160 = AXIS2_PLACEMENT_3D ( 'NONE', #172, #303, #161 ) ;
#161 = DIRECTION ( 'NONE',  ( 4.275831445896958607E-31, 1.000000000000000000, 1.224646799147353207E-16 ) ) ;
#162 = MANIFOLD_SOLID_BREP ( 'Corps-Déplacer/Copier1[2]', #142 ) ;
#163 = CIRCLE ( 'NONE', #230, 2.549999999999988276 ) ;
#164 = ADVANCED_FACE ( 'NONE', ( #116 ), #186, .T. ) ;
#165 = LOCAL_TIME ( 15, 22, 52.00000000000000000, #192 ) ;
#166 = ORIENTED_EDGE ( 'NONE', *, *, #20, .F. ) ;
#167 = PERSON_AND_ORGANIZATION_ROLE ( 'design_supplier' ) ;
#168 = ADVANCED_FACE ( 'NONE', ( #215 ), #267, .T. ) ;
#169 = APPROVAL ( #32, 'UNSPECIFIED' ) ;
#170 = CIRCLE ( 'NONE', #311, 1.949999999999999067 ) ;
#171 =( NAMED_UNIT ( * ) PLANE_ANGLE_UNIT ( ) SI_UNIT ( $, .RADIAN. ) );
#172 = CARTESIAN_POINT ( 'NONE',  ( 0.0000000000000000000, 0.0000000000000000000, 0.0000000000000000000 ) ) ;
#173 = CARTESIAN_POINT ( 'NONE',  ( 1.815570296198429345E-13, -6.368163355566236381E-15, 52.00000000000000000 ) ) ;
#174 = DIRECTION ( 'NONE',  ( 0.0000000000000000000, 1.000000000000000000, 0.0000000000000000000 ) ) ;
#175 = LOCAL_TIME ( 15, 22, 52.00000000000000000, #219 ) ;
#176 = ORIENTED_EDGE ( 'NONE', *, *, #76, .F. ) ;
#177 = DIRECTION ( 'NONE',  ( -3.491481338843133355E-15, 1.224646799147353207E-16, -1.000000000000000000 ) ) ;
#178 = LINE ( 'NONE', #58, #196 ) ;
#179 = VERTEX_POINT ( 'NONE', #252 ) ;
#180 =( GEOMETRIC_REPRESENTATION_CONTEXT ( 3 ) GLOBAL_UNCERTAINTY_ASSIGNED_CONTEXT ( ( #130 ) ) GLOBAL_UNIT_ASSIGNED_CONTEXT ( ( #72, #171, #69 ) ) REPRESENTATION_CONTEXT ( 'NONE', 'WORKASPACE' ) );
#181 = ORIENTED_EDGE ( 'NONE', *, *, #29, .T. ) ;
#182 = DATE_AND_TIME ( #66, #138 ) ;
#183 = COORDINATED_UNIVERSAL_TIME_OFFSET ( 1, 0, .AHEAD. ) ;
#184 = VERTEX_POINT ( 'NONE', #201 ) ;
#185 = DIRECTION ( 'NONE',  ( 0.0000000000000000000, 1.000000000000000000, 0.0000000000000000000 ) ) ;
#186 = CONICAL_SURFACE ( 'NONE', #283, 2.549999999999988276, 1.029744258676649649 ) ;
#187 = LOCAL_TIME ( 15, 22, 52.00000000000000000, #183 ) ;
#188 = CARTESIAN_POINT ( 'NONE',  ( 3.002673951405094433E-13, -1.053196247266723694E-14, 86.00000000000000000 ) ) ;
#189 = VERTEX_POINT ( 'NONE', #226 ) ;
#190 = DATE_TIME_ROLE ( 'classification_date' ) ;
#191 = PERSON_AND_ORGANIZATION_ROLE ( 'creator' ) ;
#192 = COORDINATED_UNIVERSAL_TIME_OFFSET ( 1, 0, .AHEAD. ) ;
#193 = CONICAL_SURFACE ( 'NONE', #154, 1.949999999999999067, 0.7853981633974453924 ) ;
#194 = CALENDAR_DATE ( 2021, 2, 9 ) ;
#195 = CARTESIAN_POINT ( 'NONE',  ( 0.0000000000000000000, 0.0000000000000000000, 0.0000000000000000000 ) ) ;
#196 = VECTOR ( 'NONE', #316, 1000.000000000000114 ) ;
#197 = CARTESIAN_POINT ( 'NONE',  ( 2.994954962686646574E-13, -1.950000000000009726, 86.00000000000000000 ) ) ;
#198 = CARTESIAN_POINT ( 'NONE',  ( 3.002673951405094433E-13, -1.053196247266723694E-14, 86.00000000000000000 ) ) ;
#199 = CARTESIAN_POINT ( 'NONE',  ( 1.815570296198429345E-13, 1.912193722893855039E-32, 52.00000000000000000 ) ) ;
#200 = DIRECTION ( 'NONE',  ( -3.491481338843133355E-15, 1.224646799147353207E-16, -1.000000000000000000 ) ) ;
#201 = CARTESIAN_POINT ( 'NONE',  ( 2.401770529123057402E-13, -2.550000000000009148, 85.39999999999999147 ) ) ;
#202 = LINE ( 'NONE', #318, #109 ) ;
#203 = DIRECTION ( 'NONE',  ( -3.491481338843133355E-15, 1.224646799147353207E-16, -1.000000000000000000 ) ) ;
#204 = EDGE_CURVE ( 'NONE', #179, #329, #328, .T. ) ;
#205 = EDGE_LOOP ( 'NONE', ( #334, #250, #293, #166 ) ) ;
#206 = AXIS2_PLACEMENT_3D ( 'NONE', #87, #312, #51 ) ;
#207 = LINE ( 'NONE', #127, #304 ) ;
#208 = VERTEX_POINT ( 'NONE', #152 ) ;
#209 = ORIENTED_EDGE ( 'NONE', *, *, #300, .T. ) ;
#210 = DIRECTION ( 'NONE',  ( -3.491481338843133355E-15, 1.224646799147353207E-16, -1.000000000000000000 ) ) ;
#211 = CALENDAR_DATE ( 2021, 2, 9 ) ;
#212 = ORIENTED_EDGE ( 'NONE', *, *, #204, .F. ) ;
#213 = DATE_AND_TIME ( #211, #187 ) ;
#214 = EDGE_CURVE ( 'NONE', #40, #135, #260, .T. ) ;
#215 = FACE_OUTER_BOUND ( 'NONE', #205, .T. ) ;
#216 = CIRCLE ( 'NONE', #245, 2.549999999999998934 ) ;
#217 = DIRECTION ( 'NONE',  ( -3.491481338843133355E-15, 1.224646799147353207E-16, -1.000000000000000000 ) ) ;
#218 = CC_DESIGN_APPROVAL ( #53, ( #44 ) ) ;
#219 = COORDINATED_UNIVERSAL_TIME_OFFSET ( 1, 0, .AHEAD. ) ;
#220 = LINE ( 'NONE', #6, #285 ) ;
#221 = EDGE_LOOP ( 'NONE', ( #115, #237, #212, #70 ) ) ;
#222 = VECTOR ( 'NONE', #203, 1000.000000000000000 ) ;
#223 = DIRECTION ( 'NONE',  ( 3.021066579430971991E-31, 1.000000000000000000, 8.503546450866740258E-17 ) ) ;
#224 = DIRECTION ( 'NONE',  ( -3.491481338843133355E-15, 1.224646799147353207E-16, -1.000000000000000000 ) ) ;
#225 = EDGE_CURVE ( 'NONE', #189, #135, #163, .T. ) ;
#226 = CARTESIAN_POINT ( 'NONE',  ( 5.661913712162783516E-15, 2.549999999999988276, 1.532194578520289063 ) ) ;
#227 = CARTESIAN_POINT ( 'NONE',  ( 5.349628778380207784E-15, -2.549999999999988276, 1.532194578520288619 ) ) ;
#228 = DIRECTION ( 'NONE',  ( 0.0000000000000000000, 1.000000000000000000, 0.0000000000000000000 ) ) ;
#229 = CC_DESIGN_PERSON_AND_ORGANIZATION_ASSIGNMENT ( #140, #24, ( #266 ) ) ;
#230 = AXIS2_PLACEMENT_3D ( 'NONE', #231, #31, #223 ) ;
#231 = CARTESIAN_POINT ( 'NONE',  ( 5.349628778380208573E-15, -1.876397186255799749E-16, 1.532194578520288841 ) ) ;
#232 = EDGE_LOOP ( 'NONE', ( #298, #158, #273, #89 ) ) ;
#233 = AXIS2_PLACEMENT_3D ( 'NONE', #56, #224, #257 ) ;
#234 = FACE_OUTER_BOUND ( 'NONE', #60, .T. ) ;
#235 = DIRECTION ( 'NONE',  ( 3.021066579430971991E-31, 1.000000000000000000, 8.503546450866740258E-17 ) ) ;
#236 = APPLICATION_PROTOCOL_DEFINITION ( 'international standard', 'config_control_design', 1994, #251 ) ;
#237 = ORIENTED_EDGE ( 'NONE', *, *, #143, .T. ) ;
#238 = APPROVAL_DATE_TIME ( #182, #248 ) ;
#239 = CYLINDRICAL_SURFACE ( 'NONE', #287, 2.549999999999996714 ) ;
#240 = DIRECTION ( 'NONE',  ( -3.491481338843133355E-15, 1.224646799147353207E-16, -1.000000000000000000 ) ) ;
#241 = CARTESIAN_POINT ( 'NONE',  ( 3.002673951405094433E-13, -1.053196247266723694E-14, 86.00000000000000000 ) ) ;
#242 = APPROVAL_PERSON_ORGANIZATION ( #118, #248, #97 ) ;
#243 = DIRECTION ( 'NONE',  ( 4.275831445896958607E-31, 1.000000000000000000, 1.224646799147353207E-16 ) ) ;
#244 = VERTEX_POINT ( 'NONE', #10 ) ;
#245 = AXIS2_PLACEMENT_3D ( 'NONE', #34, #15, #147 ) ;
#246 = SECURITY_CLASSIFICATION ( '', '', #307 ) ;
#247 = DIRECTION ( 'NONE',  ( -3.021066579430971991E-31, -1.000000000000000000, -8.503546450866740258E-17 ) ) ;
#248 = APPROVAL ( #333, 'UNSPECIFIED' ) ;
#249 = CIRCLE ( 'NONE', #124, 2.549999999999994937 ) ;
#250 = ORIENTED_EDGE ( 'NONE', *, *, #137, .T. ) ;
#251 = APPLICATION_CONTEXT ( 'configuration controlled 3d designs of mechanical parts and assemblies' ) ;
#252 = CARTESIAN_POINT ( 'NONE',  ( 1.815570296198429345E-13, 2.549999999999988276, 52.00000000000000000 ) ) ;
#253 = CARTESIAN_POINT ( 'NONE',  ( 1.815570296198429345E-13, -6.368163355566236381E-15, 52.00000000000000000 ) ) ;
#254 = AXIS2_PLACEMENT_3D ( 'NONE', #276, #271, #243 ) ;
#255 = DIRECTION ( 'NONE',  ( 0.0000000000000000000, 1.000000000000000000, 0.0000000000000000000 ) ) ;
#256 = EDGE_CURVE ( 'NONE', #63, #244, #170, .T. ) ;
#257 = DIRECTION ( 'NONE',  ( 4.275831445896958607E-31, 1.000000000000000000, 1.224646799147353207E-16 ) ) ;
#258 = DIRECTION ( 'NONE',  ( 0.0000000000000000000, 1.000000000000000000, 0.0000000000000000000 ) ) ;
#259 = DIRECTION ( 'NONE',  ( 3.491481338843133355E-15, -1.224646799147353207E-16, 1.000000000000000000 ) ) ;
#260 = LINE ( 'NONE', #128, #99 ) ;
#261 = DIRECTION ( 'NONE',  ( -3.491481338843133355E-15, 1.224646799147353207E-16, -1.000000000000000000 ) ) ;
#262 = CALENDAR_DATE ( 2021, 2, 9 ) ;
#263 = VECTOR ( 'NONE', #121, 999.9999999999998863 ) ;
#264 = SHAPE_DEFINITION_REPRESENTATION ( #330, #103 ) ;
#265 = ORIENTED_EDGE ( 'NONE', *, *, #37, .T. ) ;
#266 = PRODUCT ( '42022', '42022', '', ( #17 ) ) ;
#267 = CYLINDRICAL_SURFACE ( 'NONE', #233, 2.549999999999991385 ) ;
#268 = EDGE_CURVE ( 'NONE', #208, #184, #216, .T. ) ;
#269 = CC_DESIGN_PERSON_AND_ORGANIZATION_ASSIGNMENT ( #2, #167, ( #44 ) ) ;
#270 = EDGE_LOOP ( 'NONE', ( #68, #156 ) ) ;
#271 = DIRECTION ( 'NONE',  ( -3.491481338843133355E-15, 1.224646799147353207E-16, -1.000000000000000000 ) ) ;
#272 = CARTESIAN_POINT ( 'NONE',  ( 0.0000000000000000000, 0.0000000000000000000, 0.0000000000000000000 ) ) ;
#273 = ORIENTED_EDGE ( 'NONE', *, *, #20, .T. ) ;
#274 = CIRCLE ( 'NONE', #21, 2.549999999999998934 ) ;
#275 = FACE_OUTER_BOUND ( 'NONE', #50, .T. ) ;
#276 = CARTESIAN_POINT ( 'NONE',  ( 3.002673951405094433E-13, 1.462265788095294472E-32, 86.00000000000000000 ) ) ;
#277 = CARTESIAN_POINT ( 'NONE',  ( 5.349628778380208573E-15, -1.876397186255799749E-16, 1.532194578520288841 ) ) ;
#278 = ADVANCED_FACE ( 'NONE', ( #82 ), #55, .T. ) ;
#279 = DIRECTION ( 'NONE',  ( 0.0000000000000000000, 1.000000000000000000, 0.0000000000000000000 ) ) ;
#280 = EDGE_LOOP ( 'NONE', ( #113, #282, #153, #310 ) ) ;
#281 = DIRECTION ( 'NONE',  ( 3.491481338843133355E-15, -1.224646799147353207E-16, 1.000000000000000000 ) ) ;
#282 = ORIENTED_EDGE ( 'NONE', *, *, #102, .T. ) ;
#283 = AXIS2_PLACEMENT_3D ( 'NONE', #277, #47, #141 ) ;
#284 = VERTEX_POINT ( 'NONE', #49 ) ;
#285 = VECTOR ( 'NONE', #104, 1000.000000000000000 ) ;
#286 = DIRECTION ( 'NONE',  ( 4.275831445896958607E-31, 1.000000000000000000, 1.224646799147353207E-16 ) ) ;
#287 = AXIS2_PLACEMENT_3D ( 'NONE', #272, #217, #5 ) ;
#288 = CC_DESIGN_DATE_AND_TIME_ASSIGNMENT ( #213, #190, ( #246 ) ) ;
#289 = PLANE ( 'NONE',  #119 ) ;
#290 = CARTESIAN_POINT ( 'NONE',  ( 9.376561413289393939E-14, -2.550000000000001155, 52.00000000000000000 ) ) ;
#291 = DIRECTION ( 'NONE',  ( -3.491481338843133355E-15, 1.224646799147353207E-16, -1.000000000000000000 ) ) ;
#292 = APPROVAL_ROLE ( '' ) ;
#293 = ORIENTED_EDGE ( 'NONE', *, *, #225, .F. ) ;
#294 = PERSON_AND_ORGANIZATION ( #335, #150 ) ;
#295 = AXIS2_PLACEMENT_3D ( 'NONE', #241, #210, #96 ) ;
#296 = VERTEX_POINT ( 'NONE', #290 ) ;
#297 = DATE_AND_TIME ( #38, #175 ) ;
#298 = ORIENTED_EDGE ( 'NONE', *, *, #137, .F. ) ;
#299 = FACE_OUTER_BOUND ( 'NONE', #75, .T. ) ;
#300 = EDGE_CURVE ( 'NONE', #40, #189, #337, .T. ) ;
#301 = COORDINATED_UNIVERSAL_TIME_OFFSET ( 1, 0, .AHEAD. ) ;
#302 = ADVANCED_FACE ( 'NONE', ( #90 ), #193, .T. ) ;
#303 = DIRECTION ( 'NONE',  ( -3.491481338843133355E-15, 1.224646799147353207E-16, -1.000000000000000000 ) ) ;
#304 = VECTOR ( 'NONE', #177, 1000.000000000000000 ) ;
#305 = CARTESIAN_POINT ( 'NONE',  ( 5.349628778380208573E-15, -1.876397186255799749E-16, 1.532194578520288841 ) ) ;
#306 = AXIS2_PLACEMENT_3D ( 'NONE', #23, #111, #332 ) ;
#307 = SECURITY_CLASSIFICATION_LEVEL ( 'unclassified' ) ;
#308 = ADVANCED_FACE ( 'NONE', ( #299 ), #26, .T. ) ;
#309 = DIRECTION ( 'NONE',  ( -3.491481338843133355E-15, 1.224646799147353207E-16, -1.000000000000000000 ) ) ;
#310 = ORIENTED_EDGE ( 'NONE', *, *, #37, .F. ) ;
#311 = AXIS2_PLACEMENT_3D ( 'NONE', #198, #315, #255 ) ;
#312 = DIRECTION ( 'NONE',  ( -3.491481338843133355E-15, 1.224646799147353207E-16, -1.000000000000000000 ) ) ;
#313 = FACE_OUTER_BOUND ( 'NONE', #221, .T. ) ;
#314 = ADVANCED_FACE ( 'NONE', ( #64 ), #157, .F. ) ;
#315 = DIRECTION ( 'NONE',  ( -3.491481338843133355E-15, 1.224646799147353207E-16, -1.000000000000000000 ) ) ;
#316 = DIRECTION ( 'NONE',  ( -2.468850131082271655E-15, 0.7071067811865455743, -0.7071067811865493491 ) ) ;
#317 = COORDINATED_UNIVERSAL_TIME_OFFSET ( 1, 0, .AHEAD. ) ;
#318 = CARTESIAN_POINT ( 'NONE',  ( 3.005062012663432160E-13, -1.950000000000009726, 86.00000000000000000 ) ) ;
#319 = AXIS2_PLACEMENT_3D ( 'NONE', #188, #117, #185 ) ;
#320 = ORIENTED_EDGE ( 'NONE', *, *, #256, .T. ) ;
#321 = DATE_AND_TIME ( #194, #165 ) ;
#322 = ORIENTED_EDGE ( 'NONE', *, *, #256, .F. ) ;
#323 = ADVANCED_FACE ( 'NONE', ( #86 ), #239, .T. ) ;
#324 = DIRECTION ( 'NONE',  ( -4.275831445896958607E-31, -1.000000000000000000, -1.224646799147353207E-16 ) ) ;
#325 = CARTESIAN_POINT ( 'NONE',  ( 1.090337018703723052E-30, 2.549999999999996714, 3.122849337825746475E-16 ) ) ;
#326 = CARTESIAN_POINT ( 'NONE',  ( 5.661913712162783516E-15, 2.549999999999988276, 1.532194578520289063 ) ) ;
#327 = APPROVAL_ROLE ( '' ) ;
#328 = CIRCLE ( 'NONE', #206, 2.549999999999994937 ) ;
#329 = VERTEX_POINT ( 'NONE', #146 ) ;
#330 = PRODUCT_DEFINITION_SHAPE ( 'NONE', 'NONE',  #12 ) ;
#331 = ORIENTED_EDGE ( 'NONE', *, *, #214, .F. ) ;
#332 = DIRECTION ( 'NONE',  ( 1.000000000000000000, 0.0000000000000000000, 0.0000000000000000000 ) ) ;
#333 = APPROVAL_STATUS ( 'not_yet_approved' ) ;
#334 = ORIENTED_EDGE ( 'NONE', *, *, #14, .T. ) ;
#335 = PERSON ( 'UNSPECIFIED', 'UNSPECIFIED', 'UNSPECIFIED', ('UNSPECIFIED'), ('UNSPECIFIED'), ('UNSPECIFIED') ) ;
#336 = AXIS2_PLACEMENT_3D ( 'NONE', #305, #281, #247 ) ;
#337 = LINE ( 'NONE', #326, #263 ) ;
ENDSEC;
END-ISO-10303-21;
