ISO-10303-21;
HEADER;
FILE_DESCRIPTION (( 'STEP AP203' ),
    '1' );
FILE_NAME ('41996.step',
    '2021-11-01T09:16:13',
    ( '' ),
    ( '' ),
    'SwSTEP 2.0',
    'SolidWorks 2019',
    '' );
FILE_SCHEMA (( 'CONFIG_CONTROL_DESIGN' ));
ENDSEC;

DATA;
#1 = VERTEX_POINT ( 'NONE', #120 ) ;
#2 = ADVANCED_FACE ( 'NONE', ( #93, #151 ), #34, .T. ) ;
#3 = CLOSED_SHELL ( 'NONE', ( #223, #191, #70 ) ) ;
#4 = LOCAL_TIME ( 10, 16, 13.00000000000000000, #102 ) ;
#5 = CARTESIAN_POINT ( 'NONE',  ( 1.990144363140586139E-13, 1.799711739194216266E-32, 57.00000000000000000 ) ) ;
#6 = ADVANCED_FACE ( 'NONE', ( #94 ), #86, .F. ) ;
#7 = CC_DESIGN_APPROVAL ( #85, ( #64 ) ) ;
#8 = DATE_AND_TIME ( #76, #121 ) ;
#9 = ORIENTED_EDGE ( 'NONE', *, *, #182, .T. ) ;
#10 = EDGE_CURVE ( 'NONE', #136, #136, #214, .T. ) ;
#11 = EDGE_LOOP ( 'NONE', ( #199 ) ) ;
#12 = COORDINATED_UNIVERSAL_TIME_OFFSET ( 1, 0, .AHEAD. ) ;
#13 = EDGE_LOOP ( 'NONE', ( #59 ) ) ;
#14 = UNCERTAINTY_MEASURE_WITH_UNIT (LENGTH_MEASURE( 1.000000000000000082E-05 ), #40, 'distance_accuracy_value', 'NONE');
#15 = FACE_OUTER_BOUND ( 'NONE', #216, .T. ) ;
#16 = LOCAL_TIME ( 10, 16, 13.00000000000000000, #12 ) ;
#17 = DIRECTION ( 'NONE',  ( -3.491481338843133355E-15, 1.224646799147353207E-16, -1.000000000000000000 ) ) ;
#18 = DIRECTION ( 'NONE',  ( -4.285855558155654155E-31, -1.000000000000000000, -1.227517819005651059E-16 ) ) ;
#19 = DIRECTION ( 'NONE',  ( -4.343272410919458453E-31, -1.000000000000000000, -1.227517819005651059E-16 ) ) ;
#20 = APPROVAL_STATUS ( 'not_yet_approved' ) ;
#21 =( NAMED_UNIT ( * ) PLANE_ANGLE_UNIT ( ) SI_UNIT ( $, .RADIAN. ) );
#22 = DATE_AND_TIME ( #172, #4 ) ;
#23 = CARTESIAN_POINT ( 'NONE',  ( 3.491481338843132724E-14, -2.499999999999999556, 9.999999999999998224 ) ) ;
#24 = DIRECTION ( 'NONE',  ( 3.491481338843133355E-15, -1.224646799147353207E-16, 1.000000000000000000 ) ) ;
#25 = ORIENTED_EDGE ( 'NONE', *, *, #46, .F. ) ;
#26 = APPROVAL_ROLE ( '' ) ;
#27 = CIRCLE ( 'NONE', #147, 2.399999999999996803 ) ;
#28 = MANIFOLD_SOLID_BREP ( 'Corps-Déplacer/Copier1[2]', #3 ) ;
#29 = EDGE_LOOP ( 'NONE', ( #77 ) ) ;
#30 = CARTESIAN_POINT ( 'NONE',  ( -1.712838606423453695E-30, 3.767005376566646793E-32, -4.905764746235146734E-16 ) ) ;
#31 = DIRECTION ( 'NONE',  ( 3.491481338843133355E-15, -1.227517819005651059E-16, 1.000000000000000000 ) ) ;
#32 = CARTESIAN_POINT ( 'NONE',  ( 1.969195475107526960E-13, -6.907007947191071191E-15, 56.39999999999999147 ) ) ;
#33 = PLANE ( 'NONE',  #152 ) ;
#34 = CONICAL_SURFACE ( 'NONE', #159, 2.399999999999996803, 0.7853981633974396193 ) ;
#35 = CIRCLE ( 'NONE', #73, 2.999999999999993783 ) ;
#36 = PERSON_AND_ORGANIZATION ( #163, #202 ) ;
#37 =( NAMED_UNIT ( * ) SI_UNIT ( $, .STERADIAN. ) SOLID_ANGLE_UNIT ( ) );
#38 = CARTESIAN_POINT ( 'NONE',  ( 1.969195475107526960E-13, 2.999999999999989786, 56.39999999999999147 ) ) ;
#39 = APPROVAL ( #20, 'UNSPECIFIED' ) ;
#40 =( LENGTH_UNIT ( ) NAMED_UNIT ( * ) SI_UNIT ( .MILLI., .METRE. ) );
#41 = APPROVAL_DATE_TIME ( #79, #85 ) ;
#42 = CC_DESIGN_SECURITY_CLASSIFICATION ( #135, ( #64 ) ) ;
#43 = DATE_AND_TIME ( #166, #129 ) ;
#44 = ORIENTED_EDGE ( 'NONE', *, *, #144, .F. ) ;
#45 = EDGE_LOOP ( 'NONE', ( #60 ) ) ;
#46 = EDGE_CURVE ( 'NONE', #71, #71, #110, .T. ) ;
#47 = DIRECTION ( 'NONE',  ( 0.0000000000000000000, 1.000000000000000000, 0.0000000000000000000 ) ) ;
#48 = FACE_OUTER_BOUND ( 'NONE', #11, .T. ) ;
#49 = DIRECTION ( 'NONE',  ( 0.0000000000000000000, -1.000000000000000000, 0.0000000000000000000 ) ) ;
#50 = DIRECTION ( 'NONE',  ( 3.491481338843133355E-15, -1.224646799147353207E-16, 1.000000000000000000 ) ) ;
#51 = PRODUCT_DEFINITION_SHAPE ( 'NONE', 'NONE',  #204 ) ;
#52 = DIRECTION ( 'NONE',  ( -3.491481338843133355E-15, 1.224646799147353207E-16, -1.000000000000000000 ) ) ;
#53 = VERTEX_POINT ( 'NONE', #56 ) ;
#54 = AXIS2_PLACEMENT_3D ( 'NONE', #5, #161, #209 ) ;
#55 = PERSON_AND_ORGANIZATION_ROLE ( 'creator' ) ;
#56 = CARTESIAN_POINT ( 'NONE',  ( 4.463468607437970393E-14, 2.999999999999992006, 12.78388218141499522 ) ) ;
#57 = AXIS2_PLACEMENT_3D ( 'NONE', #112, #132, #49 ) ;
#58 = SECURITY_CLASSIFICATION_LEVEL ( 'unclassified' ) ;
#59 = ORIENTED_EDGE ( 'NONE', *, *, #139, .T. ) ;
#60 = ORIENTED_EDGE ( 'NONE', *, *, #144, .T. ) ;
#61 = SHAPE_DEFINITION_REPRESENTATION ( #51, #222 ) ;
#62 = EDGE_LOOP ( 'NONE', ( #124 ) ) ;
#63 = CARTESIAN_POINT ( 'NONE',  ( 3.491481338843132724E-14, -1.734723475976807094E-15, 9.999999999999998224 ) ) ;
#64 = PRODUCT_DEFINITION_FORMATION_WITH_SPECIFIED_SOURCE ( 'ANY', '', #133, .NOT_KNOWN. ) ;
#65 = CARTESIAN_POINT ( 'NONE',  ( -1.282749722297852494E-30, 4.499280360008248009E-32, -3.673941223821286377E-16 ) ) ;
#66 = CC_DESIGN_PERSON_AND_ORGANIZATION_ASSIGNMENT ( #211, #55, ( #204 ) ) ;
#67 = CARTESIAN_POINT ( 'NONE',  ( 1.990144363140586139E-13, -6.980486755139912911E-15, 57.00000000000000000 ) ) ;
#68 = DIRECTION ( 'NONE',  ( 0.0000000000000000000, 1.000000000000000000, 0.0000000000000000000 ) ) ;
#69 = DIRECTION ( 'NONE',  ( 3.491481338843133355E-15, -1.227517819005651059E-16, 1.000000000000000000 ) ) ;
#70 = ADVANCED_FACE ( 'NONE', ( #219 ), #33, .F. ) ;
#71 = VERTEX_POINT ( 'NONE', #38 ) ;
#72 = MECHANICAL_CONTEXT ( 'NONE', #165, 'mechanical' ) ;
#73 = AXIS2_PLACEMENT_3D ( 'NONE', #117, #153, #82 ) ;
#74 = CC_DESIGN_PERSON_AND_ORGANIZATION_ASSIGNMENT ( #106, #145, ( #64 ) ) ;
#75 = AXIS2_PLACEMENT_3D ( 'NONE', #141, #158, #99 ) ;
#76 = CALENDAR_DATE ( 2021, 1, 11 ) ;
#77 = ORIENTED_EDGE ( 'NONE', *, *, #10, .F. ) ;
#78 = EDGE_LOOP ( 'NONE', ( #164 ) ) ;
#79 = DATE_AND_TIME ( #217, #16 ) ;
#80 = AXIS2_PLACEMENT_3D ( 'NONE', #32, #52, #68 ) ;
#81 = EDGE_LOOP ( 'NONE', ( #44 ) ) ;
#82 = DIRECTION ( 'NONE',  ( 0.0000000000000000000, 1.000000000000000000, 0.0000000000000000000 ) ) ;
#83 = CARTESIAN_POINT ( 'NONE',  ( 3.491481338843132724E-14, -1.227517819005650763E-15, 9.999999999999998224 ) ) ;
#84 = FACE_OUTER_BOUND ( 'NONE', #62, .T. ) ;
#85 = APPROVAL ( #168, 'UNSPECIFIED' ) ;
#86 = PLANE ( 'NONE',  #125 ) ;
#87 = CARTESIAN_POINT ( 'NONE',  ( 1.990144363140586139E-13, 2.399999999999989697, 57.00000000000000000 ) ) ;
#88 = DATE_TIME_ROLE ( 'creation_date' ) ;
#89 = CC_DESIGN_APPROVAL ( #105, ( #135 ) ) ;
#90 = ORIENTED_EDGE ( 'NONE', *, *, #182, .F. ) ;
#91 = PERSON_AND_ORGANIZATION ( #163, #202 ) ;
#92 = MANIFOLD_SOLID_BREP ( 'Corps-Déplacer/Copier1[1]', #95 ) ;
#93 = FACE_OUTER_BOUND ( 'NONE', #180, .T. ) ;
#94 = FACE_OUTER_BOUND ( 'NONE', #29, .T. ) ;
#95 = CLOSED_SHELL ( 'NONE', ( #109, #2, #220, #101, #6 ) ) ;
#96 = CARTESIAN_POINT ( 'NONE',  ( 3.491481338843133355E-14, 2.249639673992777927E-32, 10.00000000000000000 ) ) ;
#97 = AXIS2_PLACEMENT_3D ( 'NONE', #63, #69, #19 ) ;
#98 = CC_DESIGN_PERSON_AND_ORGANIZATION_ASSIGNMENT ( #200, #128, ( #135 ) ) ;
#99 = DIRECTION ( 'NONE',  ( 1.000000000000000000, 0.0000000000000000000, 0.0000000000000000000 ) ) ;
#100 = CALENDAR_DATE ( 2021, 1, 11 ) ;
#101 = ADVANCED_FACE ( 'NONE', ( #205, #115 ), #162, .F. ) ;
#102 = COORDINATED_UNIVERSAL_TIME_OFFSET ( 1, 0, .AHEAD. ) ;
#103 = APPROVAL_PERSON_ORGANIZATION ( #36, #39, #174 ) ;
#104 = PERSON_AND_ORGANIZATION_ROLE ( 'design_owner' ) ;
#105 = APPROVAL ( #195, 'UNSPECIFIED' ) ;
#106 = PERSON_AND_ORGANIZATION ( #163, #202 ) ;
#107 = APPROVAL_PERSON_ORGANIZATION ( #160, #85, #177 ) ;
#108 = ORIENTED_EDGE ( 'NONE', *, *, #10, .T. ) ;
#109 = ADVANCED_FACE ( 'NONE', ( #130, #84 ), #183, .T. ) ;
#110 = CIRCLE ( 'NONE', #80, 2.999999999999996447 ) ;
#111 = EDGE_LOOP ( 'NONE', ( #9 ) ) ;
#112 = CARTESIAN_POINT ( 'NONE',  ( 3.491481338843132724E-14, -1.227517819005650763E-15, 9.999999999999998224 ) ) ;
#113 = CARTESIAN_POINT ( 'NONE',  ( -6.413731847436034514E-31, 0.0000000000000000000, -1.836965810494968570E-16 ) ) ;
#114 = DIRECTION ( 'NONE',  ( -4.285855558155652404E-31, -1.000000000000000000, -1.227517819005651059E-16 ) ) ;
#115 = FACE_OUTER_BOUND ( 'NONE', #13, .T. ) ;
#116 = APPLICATION_CONTEXT ( 'configuration controlled 3d designs of mechanical parts and assemblies' ) ;
#117 = CARTESIAN_POINT ( 'NONE',  ( 4.463468607437970393E-14, -2.076449974346730531E-15, 12.78388218141499522 ) ) ;
#118 = AXIS2_PLACEMENT_3D ( 'NONE', #171, #24, #156 ) ;
#119 = COORDINATED_UNIVERSAL_TIME_OFFSET ( 1, 0, .AHEAD. ) ;
#120 = CARTESIAN_POINT ( 'NONE',  ( -2.784302495962366314E-30, -2.499999999999998668, -7.974559293749273148E-16 ) ) ;
#121 = LOCAL_TIME ( 10, 16, 13.00000000000000000, #149 ) ;
#122 = DATE_AND_TIME ( #100, #196 ) ;
#123 = APPROVAL_DATE_TIME ( #43, #105 ) ;
#124 = ORIENTED_EDGE ( 'NONE', *, *, #139, .F. ) ;
#125 = AXIS2_PLACEMENT_3D ( 'NONE', #96, #208, #181 ) ;
#126 = AXIS2_PLACEMENT_3D ( 'NONE', #83, #155, #221 ) ;
#127 = ORIENTED_EDGE ( 'NONE', *, *, #46, .T. ) ;
#128 = PERSON_AND_ORGANIZATION_ROLE ( 'classification_officer' ) ;
#129 = LOCAL_TIME ( 10, 16, 13.00000000000000000, #194 ) ;
#130 = FACE_OUTER_BOUND ( 'NONE', #146, .T. ) ;
#131 = DIRECTION ( 'NONE',  ( -4.275831445896958607E-31, -1.000000000000000000, -1.224646799147353207E-16 ) ) ;
#132 = DIRECTION ( 'NONE',  ( 3.491481338843133355E-15, -1.227517819005651059E-16, 1.000000000000000000 ) ) ;
#133 = PRODUCT ( '41996', '41996', '', ( #72 ) ) ;
#134 = CC_DESIGN_DATE_AND_TIME_ASSIGNMENT ( #22, #88, ( #204 ) ) ;
#135 = SECURITY_CLASSIFICATION ( '', '', #58 ) ;
#136 = VERTEX_POINT ( 'NONE', #212 ) ;
#137 = APPROVAL_PERSON_ORGANIZATION ( #143, #105, #26 ) ;
#138 = APPROVAL_DATE_TIME ( #122, #39 ) ;
#139 = EDGE_CURVE ( 'NONE', #53, #53, #35, .T. ) ;
#140 = PLANE ( 'NONE',  #118 ) ;
#141 = CARTESIAN_POINT ( 'NONE',  ( 0.0000000000000000000, 0.0000000000000000000, 0.0000000000000000000 ) ) ;
#142 = AXIS2_PLACEMENT_3D ( 'NONE', #206, #17, #203 ) ;
#143 = PERSON_AND_ORGANIZATION ( #163, #202 ) ;
#144 = EDGE_CURVE ( 'NONE', #193, #193, #27, .T. ) ;
#145 = PERSON_AND_ORGANIZATION_ROLE ( 'design_supplier' ) ;
#146 = EDGE_LOOP ( 'NONE', ( #127 ) ) ;
#147 = AXIS2_PLACEMENT_3D ( 'NONE', #67, #186, #47 ) ;
#148 = PERSON_AND_ORGANIZATION_ROLE ( 'creator' ) ;
#149 = COORDINATED_UNIVERSAL_TIME_OFFSET ( 1, 0, .AHEAD. ) ;
#150 = CARTESIAN_POINT ( 'NONE',  ( 1.990144363140586139E-13, -6.980486755139912911E-15, 57.00000000000000000 ) ) ;
#151 = FACE_BOUND ( 'NONE', #45, .T. ) ;
#152 = AXIS2_PLACEMENT_3D ( 'NONE', #65, #50, #131 ) ;
#153 = DIRECTION ( 'NONE',  ( -3.491481338843133355E-15, 1.227517819005651059E-16, -1.000000000000000000 ) ) ;
#154 = FACE_OUTER_BOUND ( 'NONE', #81, .T. ) ;
#155 = DIRECTION ( 'NONE',  ( 3.491481338843133355E-15, -1.227517819005651059E-16, 1.000000000000000000 ) ) ;
#156 = DIRECTION ( 'NONE',  ( -4.275831445896958607E-31, -1.000000000000000000, -1.224646799147353207E-16 ) ) ;
#157 = CC_DESIGN_PERSON_AND_ORGANIZATION_ASSIGNMENT ( #91, #148, ( #64 ) ) ;
#158 = DIRECTION ( 'NONE',  ( 0.0000000000000000000, 0.0000000000000000000, 1.000000000000000000 ) ) ;
#159 = AXIS2_PLACEMENT_3D ( 'NONE', #150, #178, #218 ) ;
#160 = PERSON_AND_ORGANIZATION ( #163, #202 ) ;
#161 = DIRECTION ( 'NONE',  ( -3.491481338843133355E-15, 1.224646799147353207E-16, -1.000000000000000000 ) ) ;
#162 = TOROIDAL_SURFACE ( 'NONE', #97, 10.49999999999999822, 8.000000000000000000 ) ;
#163 = PERSON ( 'UNSPECIFIED', 'UNSPECIFIED', 'UNSPECIFIED', ('UNSPECIFIED'), ('UNSPECIFIED'), ('UNSPECIFIED') ) ;
#164 = ORIENTED_EDGE ( 'NONE', *, *, #185, .F. ) ;
#165 = APPLICATION_CONTEXT ( 'configuration controlled 3d designs of mechanical parts and assemblies' ) ;
#166 = CALENDAR_DATE ( 2021, 1, 11 ) ;
#167 = CC_DESIGN_APPROVAL ( #39, ( #204 ) ) ;
#168 = APPROVAL_STATUS ( 'not_yet_approved' ) ;
#169 = DIRECTION ( 'NONE',  ( 3.491481338843133355E-15, -1.227517819005651059E-16, 1.000000000000000000 ) ) ;
#170 = VERTEX_POINT ( 'NONE', #23 ) ;
#171 = CARTESIAN_POINT ( 'NONE',  ( 3.491481338843133355E-14, 2.249639673992777927E-32, 10.00000000000000000 ) ) ;
#172 = CALENDAR_DATE ( 2021, 1, 11 ) ;
#173 = AXIS2_PLACEMENT_3D ( 'NONE', #30, #169, #114 ) ;
#174 = APPROVAL_ROLE ( '' ) ;
#175 = CC_DESIGN_PERSON_AND_ORGANIZATION_ASSIGNMENT ( #213, #104, ( #133 ) ) ;
#176 = CC_DESIGN_DATE_AND_TIME_ASSIGNMENT ( #8, #197, ( #135 ) ) ;
#177 = APPROVAL_ROLE ( '' ) ;
#178 = DIRECTION ( 'NONE',  ( -3.491481338843133355E-15, 1.224646799147353207E-16, -1.000000000000000000 ) ) ;
#179 = AXIS2_PLACEMENT_3D ( 'NONE', #113, #31, #18 ) ;
#180 = EDGE_LOOP ( 'NONE', ( #25 ) ) ;
#181 = DIRECTION ( 'NONE',  ( -4.275831445896958607E-31, -1.000000000000000000, -1.224646799147353207E-16 ) ) ;
#182 = EDGE_CURVE ( 'NONE', #170, #170, #188, .T. ) ;
#183 = CYLINDRICAL_SURFACE ( 'NONE', #142, 2.999999999999993783 ) ;
#184 = CYLINDRICAL_SURFACE ( 'NONE', #179, 2.499999999999998668 ) ;
#185 = EDGE_CURVE ( 'NONE', #1, #1, #207, .T. ) ;
#186 = DIRECTION ( 'NONE',  ( -3.491481338843133355E-15, 1.224646799147353207E-16, -1.000000000000000000 ) ) ;
#187 = APPLICATION_PROTOCOL_DEFINITION ( 'international standard', 'config_control_design', 1994, #165 ) ;
#188 = CIRCLE ( 'NONE', #57, 2.499999999999998224 ) ;
#189 = APPLICATION_PROTOCOL_DEFINITION ( 'international standard', 'config_control_design', 1994, #116 ) ;
#190 = PLANE ( 'NONE',  #54 ) ;
#191 = ADVANCED_FACE ( 'NONE', ( #48, #15 ), #184, .T. ) ;
#192 = FACE_OUTER_BOUND ( 'NONE', #111, .T. ) ;
#193 = VERTEX_POINT ( 'NONE', #87 ) ;
#194 = COORDINATED_UNIVERSAL_TIME_OFFSET ( 1, 0, .AHEAD. ) ;
#195 = APPROVAL_STATUS ( 'not_yet_approved' ) ;
#196 = LOCAL_TIME ( 10, 16, 13.00000000000000000, #119 ) ;
#197 = DATE_TIME_ROLE ( 'classification_date' ) ;
#198 = EDGE_LOOP ( 'NONE', ( #108 ) ) ;
#199 = ORIENTED_EDGE ( 'NONE', *, *, #185, .T. ) ;
#200 = PERSON_AND_ORGANIZATION ( #163, #202 ) ;
#201 = DESIGN_CONTEXT ( 'detailed design', #116, 'design' ) ;
#202 = ORGANIZATION ( 'UNSPECIFIED', 'UNSPECIFIED', '' ) ;
#203 = DIRECTION ( 'NONE',  ( 4.275831445896958607E-31, 1.000000000000000000, 1.224646799147353454E-16 ) ) ;
#204 = PRODUCT_DEFINITION ( 'UNKNOWN', '', #64, #201 ) ;
#205 = FACE_OUTER_BOUND ( 'NONE', #198, .T. ) ;
#206 = CARTESIAN_POINT ( 'NONE',  ( 0.0000000000000000000, 0.0000000000000000000, 0.0000000000000000000 ) ) ;
#207 = CIRCLE ( 'NONE', #173, 2.499999999999998668 ) ;
#208 = DIRECTION ( 'NONE',  ( 3.491481338843133355E-15, -1.224646799147353207E-16, 1.000000000000000000 ) ) ;
#209 = DIRECTION ( 'NONE',  ( 4.275831445896958607E-31, 1.000000000000000000, 1.224646799147353207E-16 ) ) ;
#210 =( GEOMETRIC_REPRESENTATION_CONTEXT ( 3 ) GLOBAL_UNCERTAINTY_ASSIGNED_CONTEXT ( ( #14 ) ) GLOBAL_UNIT_ASSIGNED_CONTEXT ( ( #40, #21, #37 ) ) REPRESENTATION_CONTEXT ( 'NONE', 'WORKASPACE' ) );
#211 = PERSON_AND_ORGANIZATION ( #163, #202 ) ;
#212 = CARTESIAN_POINT ( 'NONE',  ( 3.491481338843132724E-14, -2.499999999999999556, 9.999999999999998224 ) ) ;
#213 = PERSON_AND_ORGANIZATION ( #163, #202 ) ;
#214 = CIRCLE ( 'NONE', #126, 2.499999999999998224 ) ;
#215 = PRODUCT_RELATED_PRODUCT_CATEGORY ( 'detail', '', ( #133 ) ) ;
#216 = EDGE_LOOP ( 'NONE', ( #90 ) ) ;
#217 = CALENDAR_DATE ( 2021, 1, 11 ) ;
#218 = DIRECTION ( 'NONE',  ( 0.0000000000000000000, 1.000000000000000000, 0.0000000000000000000 ) ) ;
#219 = FACE_OUTER_BOUND ( 'NONE', #78, .T. ) ;
#220 = ADVANCED_FACE ( 'NONE', ( #154 ), #190, .F. ) ;
#221 = DIRECTION ( 'NONE',  ( 0.0000000000000000000, -1.000000000000000000, 0.0000000000000000000 ) ) ;
#222 = ADVANCED_BREP_SHAPE_REPRESENTATION ( '41996', ( #92, #28, #75 ), #210 ) ;
#223 = ADVANCED_FACE ( 'NONE', ( #192 ), #140, .T. ) ;
ENDSEC;
END-ISO-10303-21;
