ISO-10303-21;
HEADER;
FILE_DESCRIPTION (( 'STEP AP203' ),
    '1' );
FILE_NAME ('41993.step',
    '2021-10-15T13:34:51',
    ( '' ),
    ( '' ),
    'SwSTEP 2.0',
    'SolidWorks 2019',
    '' );
FILE_SCHEMA (( 'CONFIG_CONTROL_DESIGN' ));
ENDSEC;

DATA;
#1 = CARTESIAN_POINT ( 'NONE',  ( 4.538925740496072731E-14, -1.592040838891558898E-15, 12.99999999999999822 ) ) ;
#2 = ADVANCED_FACE ( 'NONE', ( #26 ), #164, .F. ) ;
#3 = DATE_AND_TIME ( #195, #17 ) ;
#4 = MECHANICAL_CONTEXT ( 'NONE', #135, 'mechanical' ) ;
#5 = PERSON_AND_ORGANIZATION ( #187, #85 ) ;
#6 = COORDINATED_UNIVERSAL_TIME_OFFSET ( 1, 0, .AHEAD. ) ;
#7 = AXIS2_PLACEMENT_3D ( 'NONE', #144, #126, #66 ) ;
#8 = ORIENTED_EDGE ( 'NONE', *, *, #133, .F. ) ;
#9 = ORIENTED_EDGE ( 'NONE', *, *, #125, .T. ) ;
#10 = CARTESIAN_POINT ( 'NONE',  ( 1.396592535537253342E-13, -4.898587196589413026E-15, 40.00000000000000000 ) ) ;
#11 = AXIS2_PLACEMENT_3D ( 'NONE', #41, #12, #109 ) ;
#12 = DIRECTION ( 'NONE',  ( -3.491481338843133355E-15, 1.224646799147353207E-16, -1.000000000000000000 ) ) ;
#13 = DIRECTION ( 'NONE',  ( 0.0000000000000000000, 1.000000000000000000, 0.0000000000000000000 ) ) ;
#14 = DIRECTION ( 'NONE',  ( 3.491481338843133355E-15, -1.224646799147353207E-16, 1.000000000000000000 ) ) ;
#15 = DIRECTION ( 'NONE',  ( -4.275831445896958607E-31, -1.000000000000000000, -1.224646799147353207E-16 ) ) ;
#16 = CLOSED_SHELL ( 'NONE', ( #106, #92, #104 ) ) ;
#17 = LOCAL_TIME ( 15, 34, 51.00000000000000000, #161 ) ;
#18 = PERSON_AND_ORGANIZATION ( #187, #85 ) ;
#19 = CALENDAR_DATE ( 2021, 15, 10 ) ;
#20 = ADVANCED_BREP_SHAPE_REPRESENTATION ( '41993', ( #132, #64, #172 ), #131 ) ;
#21 = COORDINATED_UNIVERSAL_TIME_OFFSET ( 1, 0, .AHEAD. ) ;
#22 = LOCAL_TIME ( 15, 34, 51.00000000000000000, #98 ) ;
#23 = CC_DESIGN_PERSON_AND_ORGANIZATION_ASSIGNMENT ( #5, #82, ( #155 ) ) ;
#24 = SECURITY_CLASSIFICATION ( '', '', #69 ) ;
#25 = EDGE_LOOP ( 'NONE', ( #107 ) ) ;
#26 = FACE_OUTER_BOUND ( 'NONE', #196, .T. ) ;
#27 = FACE_OUTER_BOUND ( 'NONE', #153, .T. ) ;
#28 = CARTESIAN_POINT ( 'NONE',  ( 1.384372350851302722E-13, -4.855724558619255882E-15, 39.65000000000000568 ) ) ;
#29 = APPROVAL ( #162, 'UNSPECIFIED' ) ;
#30 = CALENDAR_DATE ( 2021, 15, 10 ) ;
#31 = APPROVAL_STATUS ( 'not_yet_approved' ) ;
#32 = AXIS2_PLACEMENT_3D ( 'NONE', #10, #74, #200 ) ;
#33 = DATE_TIME_ROLE ( 'classification_date' ) ;
#34 = PERSON_AND_ORGANIZATION ( #187, #85 ) ;
#35 = PERSON_AND_ORGANIZATION ( #187, #85 ) ;
#36 = AXIS2_PLACEMENT_3D ( 'NONE', #142, #91, #15 ) ;
#37 = CC_DESIGN_APPROVAL ( #96, ( #71 ) ) ;
#38 = ORIENTED_EDGE ( 'NONE', *, *, #56, .F. ) ;
#39 = ORIENTED_EDGE ( 'NONE', *, *, #185, .F. ) ;
#40 = CC_DESIGN_PERSON_AND_ORGANIZATION_ASSIGNMENT ( #68, #149, ( #71 ) ) ;
#41 = CARTESIAN_POINT ( 'NONE',  ( 1.397874808918296468E-15, -4.903084806169209438E-17, 0.4003672576928244409 ) ) ;
#42 = CYLINDRICAL_SURFACE ( 'NONE', #54, 1.099999999999993872 ) ;
#43 = APPROVAL_PERSON_ORGANIZATION ( #116, #29, #101 ) ;
#44 = DIRECTION ( 'NONE',  ( 4.275831445896958607E-31, 1.000000000000000000, 1.224646799147352961E-16 ) ) ;
#45 = ADVANCED_FACE ( 'NONE', ( #27, #154 ), #127, .T. ) ;
#46 = DIRECTION ( 'NONE',  ( 4.275831445896958607E-31, 1.000000000000000000, 1.224646799147352961E-16 ) ) ;
#47 = DESIGN_CONTEXT ( 'detailed design', #119, 'design' ) ;
#48 = FACE_OUTER_BOUND ( 'NONE', #165, .T. ) ;
#49 = PERSON_AND_ORGANIZATION ( #187, #85 ) ;
#50 = APPLICATION_PROTOCOL_DEFINITION ( 'international standard', 'config_control_design', 1994, #119 ) ;
#51 = COORDINATED_UNIVERSAL_TIME_OFFSET ( 1, 0, .AHEAD. ) ;
#52 = DATE_AND_TIME ( #81, #22 ) ;
#53 = CC_DESIGN_DATE_AND_TIME_ASSIGNMENT ( #175, #33, ( #24 ) ) ;
#54 = AXIS2_PLACEMENT_3D ( 'NONE', #111, #145, #46 ) ;
#55 = EDGE_LOOP ( 'NONE', ( #38 ) ) ;
#56 = EDGE_CURVE ( 'NONE', #143, #143, #136, .T. ) ;
#57 = ORIENTED_EDGE ( 'NONE', *, *, #185, .T. ) ;
#58 = LOCAL_TIME ( 15, 34, 51.00000000000000000, #51 ) ;
#59 =( LENGTH_UNIT ( ) NAMED_UNIT ( * ) SI_UNIT ( .MILLI., .METRE. ) );
#60 = AXIS2_PLACEMENT_3D ( 'NONE', #76, #121, #44 ) ;
#61 = CARTESIAN_POINT ( 'NONE',  ( 4.538925740496072731E-14, 1.099999999999990763, 12.99999999999999822 ) ) ;
#62 = APPROVAL ( #31, 'UNSPECIFIED' ) ;
#63 = DIRECTION ( 'NONE',  ( -3.501690807976821919E-31, -1.000000000000000000, -9.856383386231941411E-17 ) ) ;
#64 = MANIFOLD_SOLID_BREP ( 'Corps-Déplacer/Copier1[2]', #16 ) ;
#65 = FACE_OUTER_BOUND ( 'NONE', #166, .T. ) ;
#66 = DIRECTION ( 'NONE',  ( 0.0000000000000000000, 1.000000000000000000, 0.0000000000000000000 ) ) ;
#67 = LOCAL_TIME ( 15, 34, 51.00000000000000000, #6 ) ;
#68 = PERSON_AND_ORGANIZATION ( #187, #85 ) ;
#69 = SECURITY_CLASSIFICATION_LEVEL ( 'unclassified' ) ;
#70 = PERSON_AND_ORGANIZATION_ROLE ( 'classification_officer' ) ;
#71 = PRODUCT_DEFINITION ( 'UNKNOWN', '', #155, #47 ) ;
#72 = EDGE_LOOP ( 'NONE', ( #180 ) ) ;
#73 = ORIENTED_EDGE ( 'NONE', *, *, #133, .T. ) ;
#74 = DIRECTION ( 'NONE',  ( -3.491481338843133355E-15, 1.224646799147353207E-16, -1.000000000000000000 ) ) ;
#75 = PLANE ( 'NONE',  #36 ) ;
#76 = CARTESIAN_POINT ( 'NONE',  ( 0.0000000000000000000, 0.0000000000000000000, 0.0000000000000000000 ) ) ;
#77 = EDGE_CURVE ( 'NONE', #93, #93, #99, .T. ) ;
#78 = DIRECTION ( 'NONE',  ( -3.491481338843133355E-15, 1.224646799147353207E-16, -1.000000000000000000 ) ) ;
#79 = FACE_OUTER_BOUND ( 'NONE', #151, .T. ) ;
#80 =( NAMED_UNIT ( * ) SI_UNIT ( $, .STERADIAN. ) SOLID_ANGLE_UNIT ( ) );
#81 = CALENDAR_DATE ( 2021, 15, 10 ) ;
#82 = PERSON_AND_ORGANIZATION_ROLE ( 'creator' ) ;
#83 = SHAPE_DEFINITION_REPRESENTATION ( #89, #20 ) ;
#84 = APPROVAL_ROLE ( '' ) ;
#85 = ORGANIZATION ( 'UNSPECIFIED', 'UNSPECIFIED', '' ) ;
#86 = AXIS2_PLACEMENT_3D ( 'NONE', #1, #189, #128 ) ;
#87 = LOCAL_TIME ( 15, 34, 51.00000000000000000, #21 ) ;
#88 = DIRECTION ( 'NONE',  ( -3.491481338843133355E-15, 1.224646799147353207E-16, -1.000000000000000000 ) ) ;
#89 = PRODUCT_DEFINITION_SHAPE ( 'NONE', 'NONE',  #71 ) ;
#90 = DIRECTION ( 'NONE',  ( -3.491481338843133355E-15, 1.224646799147353207E-16, -1.000000000000000000 ) ) ;
#91 = DIRECTION ( 'NONE',  ( 3.491481338843133355E-15, -1.224646799147353207E-16, 1.000000000000000000 ) ) ;
#92 = ADVANCED_FACE ( 'NONE', ( #171, #114 ), #158, .T. ) ;
#93 = VERTEX_POINT ( 'NONE', #61 ) ;
#94 = VERTEX_POINT ( 'NONE', #169 ) ;
#95 = CC_DESIGN_APPROVAL ( #29, ( #24 ) ) ;
#96 = APPROVAL ( #117, 'UNSPECIFIED' ) ;
#97 = DATE_AND_TIME ( #19, #67 ) ;
#98 = COORDINATED_UNIVERSAL_TIME_OFFSET ( 1, 0, .AHEAD. ) ;
#99 = CIRCLE ( 'NONE', #7, 1.099999999999992317 ) ;
#100 = CC_DESIGN_DATE_AND_TIME_ASSIGNMENT ( #134, #148, ( #71 ) ) ;
#101 = APPROVAL_ROLE ( '' ) ;
#102 = APPROVAL_DATE_TIME ( #52, #96 ) ;
#103 = CLOSED_SHELL ( 'NONE', ( #198, #163, #45, #2 ) ) ;
#104 = ADVANCED_FACE ( 'NONE', ( #48 ), #75, .T. ) ;
#105 = ORIENTED_EDGE ( 'NONE', *, *, #77, .F. ) ;
#106 = ADVANCED_FACE ( 'NONE', ( #124 ), #181, .T. ) ;
#107 = ORIENTED_EDGE ( 'NONE', *, *, #77, .T. ) ;
#108 = EDGE_LOOP ( 'NONE', ( #8 ) ) ;
#109 = DIRECTION ( 'NONE',  ( 3.501690807976821919E-31, 1.000000000000000000, 9.856383386231941411E-17 ) ) ;
#110 = CC_DESIGN_PERSON_AND_ORGANIZATION_ASSIGNMENT ( #18, #177, ( #179 ) ) ;
#111 = CARTESIAN_POINT ( 'NONE',  ( 0.0000000000000000000, 0.0000000000000000000, 0.0000000000000000000 ) ) ;
#112 = DIRECTION ( 'NONE',  ( 3.491481338843133355E-15, -1.224646799147353207E-16, 1.000000000000000000 ) ) ;
#113 = AXIS2_PLACEMENT_3D ( 'NONE', #167, #88, #139 ) ;
#114 = FACE_OUTER_BOUND ( 'NONE', #25, .T. ) ;
#115 = APPROVAL_ROLE ( '' ) ;
#116 = PERSON_AND_ORGANIZATION ( #187, #85 ) ;
#117 = APPROVAL_STATUS ( 'not_yet_approved' ) ;
#118 = AXIS2_PLACEMENT_3D ( 'NONE', #141, #14, #202 ) ;
#119 = APPLICATION_CONTEXT ( 'configuration controlled 3d designs of mechanical parts and assemblies' ) ;
#120 = AXIS2_PLACEMENT_3D ( 'NONE', #156, #112, #63 ) ;
#121 = DIRECTION ( 'NONE',  ( -3.491481338843133355E-15, 1.224646799147353207E-16, -1.000000000000000000 ) ) ;
#122 = CIRCLE ( 'NONE', #150, 0.7499999999999951150 ) ;
#123 = VERTEX_POINT ( 'NONE', #173 ) ;
#124 = FACE_OUTER_BOUND ( 'NONE', #72, .T. ) ;
#125 = EDGE_CURVE ( 'NONE', #94, #94, #122, .T. ) ;
#126 = DIRECTION ( 'NONE',  ( -3.491481338843133355E-15, 1.224646799147353207E-16, -1.000000000000000000 ) ) ;
#127 = CONICAL_SURFACE ( 'NONE', #32, 0.7499999999999951150, 0.7853981633974543852 ) ;
#128 = DIRECTION ( 'NONE',  ( 0.0000000000000000000, 1.000000000000000000, 0.0000000000000000000 ) ) ;
#129 = APPROVAL_DATE_TIME ( #3, #62 ) ;
#130 = APPROVAL_DATE_TIME ( #97, #29 ) ;
#131 =( GEOMETRIC_REPRESENTATION_CONTEXT ( 3 ) GLOBAL_UNCERTAINTY_ASSIGNED_CONTEXT ( ( #186 ) ) GLOBAL_UNIT_ASSIGNED_CONTEXT ( ( #59, #159, #80 ) ) REPRESENTATION_CONTEXT ( 'NONE', 'WORKASPACE' ) );
#132 = MANIFOLD_SOLID_BREP ( 'Corps-Déplacer/Copier1[1]', #103 ) ;
#133 = EDGE_CURVE ( 'NONE', #123, #123, #152, .T. ) ;
#134 = DATE_AND_TIME ( #146, #87 ) ;
#135 = APPLICATION_CONTEXT ( 'configuration controlled 3d designs of mechanical parts and assemblies' ) ;
#136 = CIRCLE ( 'NONE', #11, 1.099999999999990763 ) ;
#137 = CC_DESIGN_APPROVAL ( #62, ( #155 ) ) ;
#138 = ORIENTED_EDGE ( 'NONE', *, *, #125, .F. ) ;
#139 = DIRECTION ( 'NONE',  ( 4.275831445896958607E-31, 1.000000000000000000, 1.224646799147353207E-16 ) ) ;
#140 = CC_DESIGN_PERSON_AND_ORGANIZATION_ASSIGNMENT ( #192, #70, ( #24 ) ) ;
#141 = CARTESIAN_POINT ( 'NONE',  ( 4.538925740496072731E-14, 8.248678804640134736E-33, 12.99999999999999822 ) ) ;
#142 = CARTESIAN_POINT ( 'NONE',  ( 4.538925740496072731E-14, 8.248678804640134736E-33, 12.99999999999999822 ) ) ;
#143 = VERTEX_POINT ( 'NONE', #188 ) ;
#144 = CARTESIAN_POINT ( 'NONE',  ( 4.538925740496072731E-14, -1.592040838891558898E-15, 12.99999999999999822 ) ) ;
#145 = DIRECTION ( 'NONE',  ( -3.491481338843133355E-15, 1.224646799147353207E-16, -1.000000000000000000 ) ) ;
#146 = CALENDAR_DATE ( 2021, 15, 10 ) ;
#147 = PERSON_AND_ORGANIZATION_ROLE ( 'design_supplier' ) ;
#148 = DATE_TIME_ROLE ( 'creation_date' ) ;
#149 = PERSON_AND_ORGANIZATION_ROLE ( 'creator' ) ;
#150 = AXIS2_PLACEMENT_3D ( 'NONE', #168, #78, #170 ) ;
#151 = EDGE_LOOP ( 'NONE', ( #57 ) ) ;
#152 = CIRCLE ( 'NONE', #86, 1.099999999999992317 ) ;
#153 = EDGE_LOOP ( 'NONE', ( #39 ) ) ;
#154 = FACE_BOUND ( 'NONE', #197, .T. ) ;
#155 = PRODUCT_DEFINITION_FORMATION_WITH_SPECIFIED_SOURCE ( 'ANY', '', #179, .NOT_KNOWN. ) ;
#156 = CARTESIAN_POINT ( 'NONE',  ( 1.397874808918296468E-15, -4.903084806169209438E-17, 0.4003672576928244409 ) ) ;
#157 = PLANE ( 'NONE',  #118 ) ;
#158 = CYLINDRICAL_SURFACE ( 'NONE', #60, 1.099999999999991651 ) ;
#159 =( NAMED_UNIT ( * ) PLANE_ANGLE_UNIT ( ) SI_UNIT ( $, .RADIAN. ) );
#160 = PRODUCT_RELATED_PRODUCT_CATEGORY ( 'detail', '', ( #179 ) ) ;
#161 = COORDINATED_UNIVERSAL_TIME_OFFSET ( 1, 0, .AHEAD. ) ;
#162 = APPROVAL_STATUS ( 'not_yet_approved' ) ;
#163 = ADVANCED_FACE ( 'NONE', ( #183, #79 ), #42, .T. ) ;
#164 = PLANE ( 'NONE',  #113 ) ;
#165 = EDGE_LOOP ( 'NONE', ( #105 ) ) ;
#166 = EDGE_LOOP ( 'NONE', ( #73 ) ) ;
#167 = CARTESIAN_POINT ( 'NONE',  ( 1.396592535537253342E-13, 5.624099184981856553E-33, 40.00000000000000000 ) ) ;
#168 = CARTESIAN_POINT ( 'NONE',  ( 1.396592535537253342E-13, -4.898587196589413026E-15, 40.00000000000000000 ) ) ;
#169 = CARTESIAN_POINT ( 'NONE',  ( 1.396592535537253342E-13, 0.7499999999999902300, 40.00000000000000000 ) ) ;
#170 = DIRECTION ( 'NONE',  ( 0.0000000000000000000, 1.000000000000000000, 0.0000000000000000000 ) ) ;
#171 = FACE_OUTER_BOUND ( 'NONE', #55, .T. ) ;
#172 = AXIS2_PLACEMENT_3D ( 'NONE', #191, #194, #174 ) ;
#173 = CARTESIAN_POINT ( 'NONE',  ( 4.538925740496072731E-14, 1.099999999999990763, 12.99999999999999822 ) ) ;
#174 = DIRECTION ( 'NONE',  ( 1.000000000000000000, 0.0000000000000000000, 0.0000000000000000000 ) ) ;
#175 = DATE_AND_TIME ( #30, #58 ) ;
#176 = CC_DESIGN_PERSON_AND_ORGANIZATION_ASSIGNMENT ( #35, #147, ( #155 ) ) ;
#177 = PERSON_AND_ORGANIZATION_ROLE ( 'design_owner' ) ;
#178 = APPLICATION_PROTOCOL_DEFINITION ( 'international standard', 'config_control_design', 1994, #135 ) ;
#179 = PRODUCT ( '41993', '41993', '', ( #4 ) ) ;
#180 = ORIENTED_EDGE ( 'NONE', *, *, #56, .T. ) ;
#181 = CONICAL_SURFACE ( 'NONE', #120, 1.099999999999990763, 1.221730476396026610 ) ;
#182 = APPROVAL_PERSON_ORGANIZATION ( #49, #62, #84 ) ;
#183 = FACE_OUTER_BOUND ( 'NONE', #108, .T. ) ;
#184 = CARTESIAN_POINT ( 'NONE',  ( 1.384372350851302722E-13, 1.099999999999990763, 39.65000000000000568 ) ) ;
#185 = EDGE_CURVE ( 'NONE', #201, #201, #193, .T. ) ;
#186 = UNCERTAINTY_MEASURE_WITH_UNIT (LENGTH_MEASURE( 1.000000000000000082E-05 ), #59, 'distance_accuracy_value', 'NONE');
#187 = PERSON ( 'UNSPECIFIED', 'UNSPECIFIED', 'UNSPECIFIED', ('UNSPECIFIED'), ('UNSPECIFIED'), ('UNSPECIFIED') ) ;
#188 = CARTESIAN_POINT ( 'NONE',  ( 1.397874808918296863E-15, 1.099999999999990763, 0.4003672576928245519 ) ) ;
#189 = DIRECTION ( 'NONE',  ( -3.491481338843133355E-15, 1.224646799147353207E-16, -1.000000000000000000 ) ) ;
#190 = CC_DESIGN_SECURITY_CLASSIFICATION ( #24, ( #155 ) ) ;
#191 = CARTESIAN_POINT ( 'NONE',  ( 0.0000000000000000000, 0.0000000000000000000, 0.0000000000000000000 ) ) ;
#192 = PERSON_AND_ORGANIZATION ( #187, #85 ) ;
#193 = CIRCLE ( 'NONE', #203, 1.099999999999995426 ) ;
#194 = DIRECTION ( 'NONE',  ( 0.0000000000000000000, 0.0000000000000000000, 1.000000000000000000 ) ) ;
#195 = CALENDAR_DATE ( 2021, 15, 10 ) ;
#196 = EDGE_LOOP ( 'NONE', ( #138 ) ) ;
#197 = EDGE_LOOP ( 'NONE', ( #9 ) ) ;
#198 = ADVANCED_FACE ( 'NONE', ( #65 ), #157, .F. ) ;
#199 = APPROVAL_PERSON_ORGANIZATION ( #34, #96, #115 ) ;
#200 = DIRECTION ( 'NONE',  ( 0.0000000000000000000, 1.000000000000000000, 0.0000000000000000000 ) ) ;
#201 = VERTEX_POINT ( 'NONE', #184 ) ;
#202 = DIRECTION ( 'NONE',  ( -4.275831445896958607E-31, -1.000000000000000000, -1.224646799147353207E-16 ) ) ;
#203 = AXIS2_PLACEMENT_3D ( 'NONE', #28, #90, #13 ) ;
ENDSEC;
END-ISO-10303-21;
