ISO-10303-21;
HEADER;
FILE_DESCRIPTION (( 'STEP AP203' ),
    '1' );
FILE_NAME ('41992.step',
    '2021-09-02T13:22:51',
    ( '' ),
    ( '' ),
    'SwSTEP 2.0',
    'SolidWorks 2019',
    '' );
FILE_SCHEMA (( 'CONFIG_CONTROL_DESIGN' ));
ENDSEC;

DATA;
#1 = CC_DESIGN_DATE_AND_TIME_ASSIGNMENT ( #324, #227, ( #274 ) ) ;
#2 = ORIENTED_EDGE ( 'NONE', *, *, #107, .T. ) ;
#3 = ORIENTED_EDGE ( 'NONE', *, *, #83, .T. ) ;
#4 = APPLICATION_PROTOCOL_DEFINITION ( 'international standard', 'config_control_design', 1994, #285 ) ;
#5 = PERSON_AND_ORGANIZATION ( #271, #6 ) ;
#6 = ORGANIZATION ( 'UNSPECIFIED', 'UNSPECIFIED', '' ) ;
#7 = VERTEX_POINT ( 'NONE', #197 ) ;
#8 = FACE_OUTER_BOUND ( 'NONE', #310, .T. ) ;
#9 = ORIENTED_EDGE ( 'NONE', *, *, #83, .F. ) ;
#10 = EDGE_CURVE ( 'NONE', #171, #173, #106, .T. ) ;
#11 = ORIENTED_EDGE ( 'NONE', *, *, #77, .T. ) ;
#12 = FACE_OUTER_BOUND ( 'NONE', #26, .T. ) ;
#13 = APPROVAL_PERSON_ORGANIZATION ( #327, #99, #159 ) ;
#14 = CALENDAR_DATE ( 2021, 2, 9 ) ;
#15 = DIRECTION ( 'NONE',  ( -3.491481338843133355E-15, 1.224646799147353207E-16, -1.000000000000000000 ) ) ;
#16 = CARTESIAN_POINT ( 'NONE',  ( 0.0000000000000000000, 0.0000000000000000000, 0.0000000000000000000 ) ) ;
#17 = CIRCLE ( 'NONE', #135, 2.800000000000001155 ) ;
#18 = FACE_OUTER_BOUND ( 'NONE', #147, .T. ) ;
#19 = CC_DESIGN_DATE_AND_TIME_ASSIGNMENT ( #196, #199, ( #114 ) ) ;
#20 = CLOSED_SHELL ( 'NONE', ( #299, #42, #305, #95, #22, #331 ) ) ;
#21 = DIRECTION ( 'NONE',  ( -4.275831445896958607E-31, -1.000000000000000000, -1.224646799147353207E-16 ) ) ;
#22 = ADVANCED_FACE ( 'NONE', ( #75 ), #60, .T. ) ;
#23 = AXIS2_PLACEMENT_3D ( 'NONE', #209, #228, #240 ) ;
#24 = DIRECTION ( 'NONE',  ( -3.491481338843133355E-15, 1.224646799147353207E-16, -1.000000000000000000 ) ) ;
#25 = PERSON_AND_ORGANIZATION_ROLE ( 'creator' ) ;
#26 = EDGE_LOOP ( 'NONE', ( #48, #93, #117, #226 ) ) ;
#27 = ORIENTED_EDGE ( 'NONE', *, *, #290, .T. ) ;
#28 = CARTESIAN_POINT ( 'NONE',  ( 0.0000000000000000000, 0.0000000000000000000, 0.0000000000000000000 ) ) ;
#29 = APPROVAL_PERSON_ORGANIZATION ( #170, #313, #124 ) ;
#30 = ADVANCED_FACE ( 'NONE', ( #208 ), #229, .T. ) ;
#31 = ORIENTED_EDGE ( 'NONE', *, *, #213, .F. ) ;
#32 = CC_DESIGN_SECURITY_CLASSIFICATION ( #274, ( #212 ) ) ;
#33 = VERTEX_POINT ( 'NONE', #238 ) ;
#34 = CARTESIAN_POINT ( 'NONE',  ( 0.0000000000000000000, 0.0000000000000000000, 0.0000000000000000000 ) ) ;
#35 = COORDINATED_UNIVERSAL_TIME_OFFSET ( 1, 0, .AHEAD. ) ;
#36 = EDGE_CURVE ( 'NONE', #73, #105, #86, .T. ) ;
#37 = CARTESIAN_POINT ( 'NONE',  ( 3.429011037612576457E-16, -2.799999999999998934, -3.429011037612599630E-16 ) ) ;
#38 = CARTESIAN_POINT ( 'NONE',  ( 1.197232804851145572E-30, 2.799999999999993605, 3.429011037612581387E-16 ) ) ;
#39 = CC_DESIGN_PERSON_AND_ORGANIZATION_ASSIGNMENT ( #231, #207, ( #212 ) ) ;
#40 = AXIS2_PLACEMENT_3D ( 'NONE', #320, #58, #157 ) ;
#41 = PRODUCT ( '41992', '41992', '', ( #266 ) ) ;
#42 = ADVANCED_FACE ( 'NONE', ( #155 ), #255, .T. ) ;
#43 = DIRECTION ( 'NONE',  ( 3.491481338843133355E-15, -1.224646799147353207E-16, 1.000000000000000000 ) ) ;
#44 = APPROVAL_ROLE ( '' ) ;
#45 = DIRECTION ( 'NONE',  ( 1.903218546456022717E-15, 0.8571673007021097801, 0.5150380749100585964 ) ) ;
#46 = AXIS2_PLACEMENT_3D ( 'NONE', #236, #43, #21 ) ;
#47 = CC_DESIGN_APPROVAL ( #99, ( #212 ) ) ;
#48 = ORIENTED_EDGE ( 'NONE', *, *, #10, .F. ) ;
#49 = MANIFOLD_SOLID_BREP ( 'Corps-Déplacer/Copier1[1]', #20 ) ;
#50 = CYLINDRICAL_SURFACE ( 'NONE', #163, 2.799999999999993605 ) ;
#51 = DIRECTION ( 'NONE',  ( 0.0000000000000000000, 1.000000000000000000, 0.0000000000000000000 ) ) ;
#52 = APPROVAL_STATUS ( 'not_yet_approved' ) ;
#53 = ORIENTED_EDGE ( 'NONE', *, *, #128, .F. ) ;
#54 = VECTOR ( 'NONE', #62, 1000.000000000000000 ) ;
#55 = ORIENTED_EDGE ( 'NONE', *, *, #245, .F. ) ;
#56 = CARTESIAN_POINT ( 'NONE',  ( 3.247077645124113894E-13, -1.138921523207038456E-14, 93.00000000000000000 ) ) ;
#57 = ADVANCED_FACE ( 'NONE', ( #18 ), #203, .T. ) ;
#58 = DIRECTION ( 'NONE',  ( 3.491481338843133355E-15, -1.224646799147353207E-16, 1.000000000000000000 ) ) ;
#59 = APPROVAL_DATE_TIME ( #178, #99 ) ;
#60 = CONICAL_SURFACE ( 'NONE', #311, 2.200000000000001510, 0.7853981633974338461 ) ;
#61 = PERSON_AND_ORGANIZATION_ROLE ( 'design_supplier' ) ;
#62 = DIRECTION ( 'NONE',  ( -3.491481338843133355E-15, 1.224646799147353207E-16, -1.000000000000000000 ) ) ;
#63 = DIRECTION ( 'NONE',  ( 0.0000000000000000000, 1.000000000000000000, 0.0000000000000000000 ) ) ;
#64 = EDGE_CURVE ( 'NONE', #173, #190, #307, .T. ) ;
#65 = AXIS2_PLACEMENT_3D ( 'NONE', #177, #206, #179 ) ;
#66 = DIRECTION ( 'NONE',  ( 0.0000000000000000000, 0.0000000000000000000, 1.000000000000000000 ) ) ;
#67 = CARTESIAN_POINT ( 'NONE',  ( 3.247077645124113894E-13, -1.138921523207038456E-14, 93.00000000000000000 ) ) ;
#68 = DIRECTION ( 'NONE',  ( 0.0000000000000000000, 1.000000000000000000, 0.0000000000000000000 ) ) ;
#69 = CC_DESIGN_APPROVAL ( #150, ( #274 ) ) ;
#70 = APPROVAL_DATE_TIME ( #309, #150 ) ;
#71 = PERSON_AND_ORGANIZATION ( #271, #6 ) ;
#72 = CARTESIAN_POINT ( 'NONE',  ( 3.226128757091054463E-13, -1.131573642412154126E-14, 92.39999999999997726 ) ) ;
#73 = VERTEX_POINT ( 'NONE', #202 ) ;
#74 = AXIS2_PLACEMENT_3D ( 'NONE', #72, #79, #254 ) ;
#75 = FACE_OUTER_BOUND ( 'NONE', #176, .T. ) ;
#76 = VERTEX_POINT ( 'NONE', #318 ) ;
#77 = EDGE_CURVE ( 'NONE', #149, #7, #97, .T. ) ;
#78 = ORIENTED_EDGE ( 'NONE', *, *, #80, .F. ) ;
#79 = DIRECTION ( 'NONE',  ( -3.491481338843133355E-15, 1.224646799147353207E-16, -1.000000000000000000 ) ) ;
#80 = EDGE_CURVE ( 'NONE', #221, #173, #160, .T. ) ;
#81 = CARTESIAN_POINT ( 'NONE',  ( 3.429011037612569061E-16, -2.799999999999993605, -3.429011037612592727E-16 ) ) ;
#82 = DIRECTION ( 'NONE',  ( 4.275831445896958607E-31, 1.000000000000000000, 1.224646799147353207E-16 ) ) ;
#83 = EDGE_CURVE ( 'NONE', #7, #76, #258, .T. ) ;
#84 = LINE ( 'NONE', #38, #125 ) ;
#85 = CARTESIAN_POINT ( 'NONE',  ( 1.990144363140586139E-13, 2.099663695726588061E-32, 57.00000000000000000 ) ) ;
#86 = LINE ( 'NONE', #37, #54 ) ;
#87 = CYLINDRICAL_SURFACE ( 'NONE', #161, 2.799999999999998934 ) ;
#88 = VECTOR ( 'NONE', #185, 1000.000000000000000 ) ;
#89 = DIRECTION ( 'NONE',  ( 1.000000000000000000, 0.0000000000000000000, 0.0000000000000000000 ) ) ;
#90 = DIRECTION ( 'NONE',  ( 0.0000000000000000000, 1.000000000000000000, 0.0000000000000000000 ) ) ;
#91 = DIRECTION ( 'NONE',  ( -3.491481338843133355E-15, 1.224646799147353207E-16, -1.000000000000000000 ) ) ;
#92 = CARTESIAN_POINT ( 'NONE',  ( 6.217003291786590137E-15, 2.799999999999990052, 1.682409733277181685 ) ) ;
#93 = ORIENTED_EDGE ( 'NONE', *, *, #148, .T. ) ;
#94 = DIRECTION ( 'NONE',  ( -3.491481338843133355E-15, 1.224646799147353207E-16, -1.000000000000000000 ) ) ;
#95 = ADVANCED_FACE ( 'NONE', ( #294 ), #87, .T. ) ;
#96 = DIRECTION ( 'NONE',  ( -3.491481338843133355E-15, 1.224646799147353207E-16, -1.000000000000000000 ) ) ;
#97 = CIRCLE ( 'NONE', #239, 2.200000000000001510 ) ;
#98 = CIRCLE ( 'NONE', #131, 2.799999999999997158 ) ;
#99 = APPROVAL ( #182, 'UNSPECIFIED' ) ;
#100 = ADVANCED_FACE ( 'NONE', ( #109 ), #262, .T. ) ;
#101 = ORIENTED_EDGE ( 'NONE', *, *, #107, .F. ) ;
#102 = ADVANCED_BREP_SHAPE_REPRESENTATION ( '41992', ( #49, #263, #137 ), #198 ) ;
#103 = CIRCLE ( 'NONE', #267, 2.799999999999990052 ) ;
#104 = ORIENTED_EDGE ( 'NONE', *, *, #10, .T. ) ;
#105 = VERTEX_POINT ( 'NONE', #328 ) ;
#106 = LINE ( 'NONE', #81, #210 ) ;
#107 = EDGE_CURVE ( 'NONE', #33, #105, #220, .T. ) ;
#108 = CIRCLE ( 'NONE', #332, 2.200000000000001510 ) ;
#109 = FACE_OUTER_BOUND ( 'NONE', #316, .T. ) ;
#110 = DIRECTION ( 'NONE',  ( 0.0000000000000000000, 1.000000000000000000, 0.0000000000000000000 ) ) ;
#111 = SECURITY_CLASSIFICATION_LEVEL ( 'unclassified' ) ;
#112 = CARTESIAN_POINT ( 'NONE',  ( 3.226128757091054463E-13, -1.131573642412154126E-14, 92.39999999999997726 ) ) ;
#113 = AXIS2_PLACEMENT_3D ( 'NONE', #85, #235, #129 ) ;
#114 = PRODUCT_DEFINITION ( 'UNKNOWN', '', #212, #293 ) ;
#115 = AXIS2_PLACEMENT_3D ( 'NONE', #120, #329, #337 ) ;
#116 = DIRECTION ( 'NONE',  ( 0.0000000000000000000, 1.000000000000000000, 0.0000000000000000000 ) ) ;
#117 = ORIENTED_EDGE ( 'NONE', *, *, #192, .T. ) ;
#118 = CARTESIAN_POINT ( 'NONE',  ( 1.990144363140586139E-13, 2.799999999999990052, 57.00000000000000000 ) ) ;
#119 = CLOSED_SHELL ( 'NONE', ( #277, #57, #30, #145, #100 ) ) ;
#120 = CARTESIAN_POINT ( 'NONE',  ( 1.990144363140586139E-13, -6.980486755139912911E-15, 57.00000000000000000 ) ) ;
#121 = ORIENTED_EDGE ( 'NONE', *, *, #204, .T. ) ;
#122 = PERSON_AND_ORGANIZATION_ROLE ( 'design_owner' ) ;
#123 = ORIENTED_EDGE ( 'NONE', *, *, #172, .T. ) ;
#124 = APPROVAL_ROLE ( '' ) ;
#125 = VECTOR ( 'NONE', #261, 1000.000000000000000 ) ;
#126 = ORIENTED_EDGE ( 'NONE', *, *, #213, .T. ) ;
#127 = ORIENTED_EDGE ( 'NONE', *, *, #245, .T. ) ;
#128 = EDGE_CURVE ( 'NONE', #73, #76, #17, .T. ) ;
#129 = DIRECTION ( 'NONE',  ( -4.275831445896958607E-31, -1.000000000000000000, -1.224646799147353207E-16 ) ) ;
#130 = DIRECTION ( 'NONE',  ( 3.491481338843133355E-15, -1.224646799147353207E-16, 1.000000000000000000 ) ) ;
#131 = AXIS2_PLACEMENT_3D ( 'NONE', #270, #306, #116 ) ;
#132 = LOCAL_TIME ( 15, 22, 51.00000000000000000, #308 ) ;
#133 = FACE_OUTER_BOUND ( 'NONE', #165, .T. ) ;
#134 = CARTESIAN_POINT ( 'NONE',  ( 3.239664818105452936E-13, -2.200000000000012612, 93.00000000000000000 ) ) ;
#135 = AXIS2_PLACEMENT_3D ( 'NONE', #112, #211, #110 ) ;
#136 = EDGE_LOOP ( 'NONE', ( #225, #250, #314 ) ) ;
#137 = AXIS2_PLACEMENT_3D ( 'NONE', #300, #66, #89 ) ;
#138 =( NAMED_UNIT ( * ) SI_UNIT ( $, .STERADIAN. ) SOLID_ANGLE_UNIT ( ) );
#139 = CARTESIAN_POINT ( 'NONE',  ( 3.247077645124113894E-13, 1.649735760928027495E-32, 93.00000000000000000 ) ) ;
#140 = CARTESIAN_POINT ( 'NONE',  ( 5.874102188025330618E-15, -2.799999999999990052, 1.682409733277180797 ) ) ;
#141 = CALENDAR_DATE ( 2021, 2, 9 ) ;
#142 = APPLICATION_CONTEXT ( 'configuration controlled 3d designs of mechanical parts and assemblies' ) ;
#143 = EDGE_LOOP ( 'NONE', ( #154, #281, #249, #312 ) ) ;
#144 = CIRCLE ( 'NONE', #74, 2.800000000000001155 ) ;
#145 = ADVANCED_FACE ( 'NONE', ( #12 ), #156, .T. ) ;
#146 = ORIENTED_EDGE ( 'NONE', *, *, #290, .F. ) ;
#147 = EDGE_LOOP ( 'NONE', ( #78, #123, #126 ) ) ;
#148 = EDGE_CURVE ( 'NONE', #171, #319, #180, .T. ) ;
#149 = VERTEX_POINT ( 'NONE', #134 ) ;
#150 = APPROVAL ( #334, 'UNSPECIFIED' ) ;
#151 = AXIS2_PLACEMENT_3D ( 'NONE', #34, #260, #289 ) ;
#152 = DIRECTION ( 'NONE',  ( 4.275831445896958607E-31, 1.000000000000000000, 1.224646799147353207E-16 ) ) ;
#153 = EDGE_CURVE ( 'NONE', #319, #171, #98, .T. ) ;
#154 = ORIENTED_EDGE ( 'NONE', *, *, #36, .F. ) ;
#155 = FACE_OUTER_BOUND ( 'NONE', #278, .T. ) ;
#156 = CYLINDRICAL_SURFACE ( 'NONE', #280, 2.799999999999993605 ) ;
#157 = DIRECTION ( 'NONE',  ( -5.502656983963550652E-31, -1.000000000000000000, -1.548860246407869006E-16 ) ) ;
#158 = LOCAL_TIME ( 15, 22, 51.00000000000000000, #35 ) ;
#159 = APPROVAL_ROLE ( '' ) ;
#160 = LINE ( 'NONE', #205, #287 ) ;
#161 = AXIS2_PLACEMENT_3D ( 'NONE', #16, #256, #325 ) ;
#162 = DIRECTION ( 'NONE',  ( -3.491481338843133355E-15, 1.224646799147353207E-16, -1.000000000000000000 ) ) ;
#163 = AXIS2_PLACEMENT_3D ( 'NONE', #28, #317, #152 ) ;
#164 = CARTESIAN_POINT ( 'NONE',  ( 1.027871703548029920E-13, -2.800000000000003819, 57.00000000000000000 ) ) ;
#165 = EDGE_LOOP ( 'NONE', ( #2, #291 ) ) ;
#166 = AXIS2_PLACEMENT_3D ( 'NONE', #139, #96, #333 ) ;
#167 = PERSON_AND_ORGANIZATION ( #271, #6 ) ;
#168 = PERSON_AND_ORGANIZATION_ROLE ( 'classification_officer' ) ;
#169 = EDGE_LOOP ( 'NONE', ( #127, #121, #146, #9 ) ) ;
#170 = PERSON_AND_ORGANIZATION ( #271, #6 ) ;
#171 = VERTEX_POINT ( 'NONE', #164 ) ;
#172 = EDGE_CURVE ( 'NONE', #221, #190, #219, .T. ) ;
#173 = VERTEX_POINT ( 'NONE', #140 ) ;
#174 = VECTOR ( 'NONE', #45, 999.9999999999998863 ) ;
#175 = FACE_OUTER_BOUND ( 'NONE', #169, .T. ) ;
#176 = EDGE_LOOP ( 'NONE', ( #286, #11, #3, #53 ) ) ;
#177 = CARTESIAN_POINT ( 'NONE',  ( 1.990144363140586139E-13, -6.980486755139912911E-15, 57.00000000000000000 ) ) ;
#178 = DATE_AND_TIME ( #14, #336 ) ;
#179 = DIRECTION ( 'NONE',  ( 0.0000000000000000000, 1.000000000000000000, 0.0000000000000000000 ) ) ;
#180 = CIRCLE ( 'NONE', #65, 2.799999999999997158 ) ;
#181 = PLANE ( 'NONE',  #46 ) ;
#182 = APPROVAL_STATUS ( 'not_yet_approved' ) ;
#183 = EDGE_CURVE ( 'NONE', #105, #33, #186, .T. ) ;
#184 = PERSON_AND_ORGANIZATION ( #271, #6 ) ;
#185 = DIRECTION ( 'NONE',  ( -2.468850131082300448E-15, 0.7071067811865374697, -0.7071067811865576758 ) ) ;
#186 = CIRCLE ( 'NONE', #115, 2.799999999999997158 ) ;
#187 = LOCAL_TIME ( 15, 22, 51.00000000000000000, #292 ) ;
#188 =( LENGTH_UNIT ( ) NAMED_UNIT ( * ) SI_UNIT ( .MILLI., .METRE. ) );
#189 = DATE_AND_TIME ( #191, #252 ) ;
#190 = VERTEX_POINT ( 'NONE', #92 ) ;
#191 = CALENDAR_DATE ( 2021, 2, 9 ) ;
#192 = EDGE_CURVE ( 'NONE', #319, #190, #84, .T. ) ;
#193 = ORIENTED_EDGE ( 'NONE', *, *, #153, .F. ) ;
#194 =( NAMED_UNIT ( * ) PLANE_ANGLE_UNIT ( ) SI_UNIT ( $, .RADIAN. ) );
#195 = CARTESIAN_POINT ( 'NONE',  ( 3.247077645124113894E-13, -1.138921523207038456E-14, 93.00000000000000000 ) ) ;
#196 = DATE_AND_TIME ( #330, #158 ) ;
#197 = CARTESIAN_POINT ( 'NONE',  ( 3.247077645124113894E-13, 2.199999999999989964, 93.00000000000000000 ) ) ;
#198 =( GEOMETRIC_REPRESENTATION_CONTEXT ( 3 ) GLOBAL_UNCERTAINTY_ASSIGNED_CONTEXT ( ( #233 ) ) GLOBAL_UNIT_ASSIGNED_CONTEXT ( ( #188, #194, #138 ) ) REPRESENTATION_CONTEXT ( 'NONE', 'WORKASPACE' ) );
#199 = DATE_TIME_ROLE ( 'creation_date' ) ;
#200 = ORIENTED_EDGE ( 'NONE', *, *, #148, .F. ) ;
#201 = EDGE_LOOP ( 'NONE', ( #55, #284 ) ) ;
#202 = CARTESIAN_POINT ( 'NONE',  ( 2.611565571153431547E-13, -2.800000000000012701, 92.39999999999997726 ) ) ;
#203 = CONICAL_SURFACE ( 'NONE', #237, 2.799999999999990052, 1.029744258676649649 ) ;
#204 = EDGE_CURVE ( 'NONE', #149, #73, #214, .T. ) ;
#205 = CARTESIAN_POINT ( 'NONE',  ( 5.874102188025330618E-15, -2.799999999999990052, 1.682409733277180797 ) ) ;
#206 = DIRECTION ( 'NONE',  ( -3.491481338843133355E-15, 1.224646799147353207E-16, -1.000000000000000000 ) ) ;
#207 = PERSON_AND_ORGANIZATION_ROLE ( 'creator' ) ;
#208 = FACE_OUTER_BOUND ( 'NONE', #136, .T. ) ;
#209 = CARTESIAN_POINT ( 'NONE',  ( 1.990144363140586139E-13, -6.980486755139912911E-15, 57.00000000000000000 ) ) ;
#210 = VECTOR ( 'NONE', #247, 1000.000000000000000 ) ;
#211 = DIRECTION ( 'NONE',  ( -3.491481338843133355E-15, 1.224646799147353207E-16, -1.000000000000000000 ) ) ;
#212 = PRODUCT_DEFINITION_FORMATION_WITH_SPECIFIED_SOURCE ( 'ANY', '', #41, .NOT_KNOWN. ) ;
#213 = EDGE_CURVE ( 'NONE', #190, #173, #103, .T. ) ;
#214 = LINE ( 'NONE', #275, #246 ) ;
#215 = APPROVAL_DATE_TIME ( #189, #313 ) ;
#216 = FACE_OUTER_BOUND ( 'NONE', #201, .T. ) ;
#217 = PERSON_AND_ORGANIZATION ( #271, #6 ) ;
#218 = PRODUCT_RELATED_PRODUCT_CATEGORY ( 'detail', '', ( #41 ) ) ;
#219 = LINE ( 'NONE', #276, #174 ) ;
#220 = CIRCLE ( 'NONE', #23, 2.799999999999997158 ) ;
#221 = VERTEX_POINT ( 'NONE', #303 ) ;
#222 = ORIENTED_EDGE ( 'NONE', *, *, #192, .F. ) ;
#223 = DIRECTION ( 'NONE',  ( -3.491481338843133355E-15, 1.224646799147353207E-16, -1.000000000000000000 ) ) ;
#224 = ORIENTED_EDGE ( 'NONE', *, *, #153, .T. ) ;
#225 = ORIENTED_EDGE ( 'NONE', *, *, #172, .F. ) ;
#226 = ORIENTED_EDGE ( 'NONE', *, *, #64, .F. ) ;
#227 = DATE_TIME_ROLE ( 'classification_date' ) ;
#228 = DIRECTION ( 'NONE',  ( -3.491481338843133355E-15, 1.224646799147353207E-16, -1.000000000000000000 ) ) ;
#229 = CONICAL_SURFACE ( 'NONE', #40, 2.799999999999990052, 1.029744258676649649 ) ;
#230 = CARTESIAN_POINT ( 'NONE',  ( 5.874102188025332196E-15, -2.060357694712252421E-16, 1.682409733277181241 ) ) ;
#231 = PERSON_AND_ORGANIZATION ( #271, #6 ) ;
#232 = CARTESIAN_POINT ( 'NONE',  ( 5.874102188025332196E-15, -2.060357694712252421E-16, 1.682409733277181241 ) ) ;
#233 = UNCERTAINTY_MEASURE_WITH_UNIT (LENGTH_MEASURE( 1.000000000000000082E-05 ), #188, 'distance_accuracy_value', 'NONE');
#234 = DIRECTION ( 'NONE',  ( -5.502656983963550652E-31, -1.000000000000000000, -1.548860246407869006E-16 ) ) ;
#235 = DIRECTION ( 'NONE',  ( 3.491481338843133355E-15, -1.224646799147353207E-16, 1.000000000000000000 ) ) ;
#236 = CARTESIAN_POINT ( 'NONE',  ( 1.990144363140586139E-13, 2.099663695726588061E-32, 57.00000000000000000 ) ) ;
#237 = AXIS2_PLACEMENT_3D ( 'NONE', #232, #130, #234 ) ;
#238 = CARTESIAN_POINT ( 'NONE',  ( 1.990144363140586139E-13, 2.799999999999990052, 57.00000000000000000 ) ) ;
#239 = AXIS2_PLACEMENT_3D ( 'NONE', #56, #15, #63 ) ;
#240 = DIRECTION ( 'NONE',  ( 0.0000000000000000000, 1.000000000000000000, 0.0000000000000000000 ) ) ;
#241 = LINE ( 'NONE', #273, #301 ) ;
#242 = ORIENTED_EDGE ( 'NONE', *, *, #36, .T. ) ;
#243 = DIRECTION ( 'NONE',  ( -2.382254525458753363E-15, -0.7071067811865372477, -0.7071067811865578978 ) ) ;
#244 = CARTESIAN_POINT ( 'NONE',  ( 5.874102188025332196E-15, -2.060357694712252421E-16, 1.682409733277181241 ) ) ;
#245 = EDGE_CURVE ( 'NONE', #7, #149, #108, .T. ) ;
#246 = VECTOR ( 'NONE', #243, 1000.000000000000000 ) ;
#247 = DIRECTION ( 'NONE',  ( -3.491481338843133355E-15, 1.224646799147353207E-16, -1.000000000000000000 ) ) ;
#248 = DIRECTION ( 'NONE',  ( -3.491481338843133355E-15, 1.224646799147353207E-16, -1.000000000000000000 ) ) ;
#249 = ORIENTED_EDGE ( 'NONE', *, *, #251, .T. ) ;
#250 = ORIENTED_EDGE ( 'NONE', *, *, #80, .T. ) ;
#251 = EDGE_CURVE ( 'NONE', #76, #33, #241, .T. ) ;
#252 = LOCAL_TIME ( 15, 22, 51.00000000000000000, #315 ) ;
#253 = ORIENTED_EDGE ( 'NONE', *, *, #251, .F. ) ;
#254 = DIRECTION ( 'NONE',  ( 0.0000000000000000000, 1.000000000000000000, 0.0000000000000000000 ) ) ;
#255 = CYLINDRICAL_SURFACE ( 'NONE', #151, 2.799999999999998934 ) ;
#256 = DIRECTION ( 'NONE',  ( -3.491481338843133355E-15, 1.224646799147353207E-16, -1.000000000000000000 ) ) ;
#257 = CONICAL_SURFACE ( 'NONE', #326, 2.200000000000001510, 0.7853981633974338461 ) ;
#258 = LINE ( 'NONE', #295, #88 ) ;
#259 = CC_DESIGN_PERSON_AND_ORGANIZATION_ASSIGNMENT ( #184, #61, ( #212 ) ) ;
#260 = DIRECTION ( 'NONE',  ( -3.491481338843133355E-15, 1.224646799147353207E-16, -1.000000000000000000 ) ) ;
#261 = DIRECTION ( 'NONE',  ( -3.491481338843133355E-15, 1.224646799147353207E-16, -1.000000000000000000 ) ) ;
#262 = PLANE ( 'NONE',  #113 ) ;
#263 = MANIFOLD_SOLID_BREP ( 'Corps-Déplacer/Copier1[2]', #119 ) ;
#264 = DIRECTION ( 'NONE',  ( 5.502656983963550652E-31, 1.000000000000000000, 1.548860246407869006E-16 ) ) ;
#265 = CALENDAR_DATE ( 2021, 2, 9 ) ;
#266 = MECHANICAL_CONTEXT ( 'NONE', #142, 'mechanical' ) ;
#267 = AXIS2_PLACEMENT_3D ( 'NONE', #244, #94, #272 ) ;
#268 = COORDINATED_UNIVERSAL_TIME_OFFSET ( 1, 0, .AHEAD. ) ;
#269 = PRODUCT_DEFINITION_SHAPE ( 'NONE', 'NONE',  #114 ) ;
#270 = CARTESIAN_POINT ( 'NONE',  ( 1.990144363140586139E-13, -6.980486755139912911E-15, 57.00000000000000000 ) ) ;
#271 = PERSON ( 'UNSPECIFIED', 'UNSPECIFIED', 'UNSPECIFIED', ('UNSPECIFIED'), ('UNSPECIFIED'), ('UNSPECIFIED') ) ;
#272 = DIRECTION ( 'NONE',  ( 5.502656983963550652E-31, 1.000000000000000000, 1.548860246407869006E-16 ) ) ;
#273 = CARTESIAN_POINT ( 'NONE',  ( 1.197232804851148024E-30, 2.799999999999998934, 3.429011037612587797E-16 ) ) ;
#274 = SECURITY_CLASSIFICATION ( '', '', #111 ) ;
#275 = CARTESIAN_POINT ( 'NONE',  ( 3.249771868082238522E-13, -2.200000000000012612, 93.00000000000000000 ) ) ;
#276 = CARTESIAN_POINT ( 'NONE',  ( 6.217003291786590137E-15, 2.799999999999990052, 1.682409733277181685 ) ) ;
#277 = ADVANCED_FACE ( 'NONE', ( #8 ), #50, .T. ) ;
#278 = EDGE_LOOP ( 'NONE', ( #27, #242, #101, #253 ) ) ;
#279 = SHAPE_DEFINITION_REPRESENTATION ( #269, #102 ) ;
#280 = AXIS2_PLACEMENT_3D ( 'NONE', #321, #296, #82 ) ;
#281 = ORIENTED_EDGE ( 'NONE', *, *, #128, .T. ) ;
#282 = CC_DESIGN_APPROVAL ( #313, ( #114 ) ) ;
#283 = CARTESIAN_POINT ( 'NONE',  ( 3.247077645124113894E-13, -1.138921523207038456E-14, 93.00000000000000000 ) ) ;
#284 = ORIENTED_EDGE ( 'NONE', *, *, #77, .F. ) ;
#285 = APPLICATION_CONTEXT ( 'configuration controlled 3d designs of mechanical parts and assemblies' ) ;
#286 = ORIENTED_EDGE ( 'NONE', *, *, #204, .F. ) ;
#287 = VECTOR ( 'NONE', #323, 1000.000000000000000 ) ;
#288 = APPROVAL_PERSON_ORGANIZATION ( #167, #150, #44 ) ;
#289 = DIRECTION ( 'NONE',  ( 4.275831445896958607E-31, 1.000000000000000000, 1.224646799147353207E-16 ) ) ;
#290 = EDGE_CURVE ( 'NONE', #76, #73, #144, .T. ) ;
#291 = ORIENTED_EDGE ( 'NONE', *, *, #183, .T. ) ;
#292 = COORDINATED_UNIVERSAL_TIME_OFFSET ( 1, 0, .AHEAD. ) ;
#293 = DESIGN_CONTEXT ( 'detailed design', #285, 'design' ) ;
#294 = FACE_OUTER_BOUND ( 'NONE', #143, .T. ) ;
#295 = CARTESIAN_POINT ( 'NONE',  ( 3.247077645124113894E-13, 2.199999999999989964, 93.00000000000000000 ) ) ;
#296 = DIRECTION ( 'NONE',  ( -3.491481338843133355E-15, 1.224646799147353207E-16, -1.000000000000000000 ) ) ;
#297 = CC_DESIGN_PERSON_AND_ORGANIZATION_ASSIGNMENT ( #217, #25, ( #114 ) ) ;
#298 = APPLICATION_PROTOCOL_DEFINITION ( 'international standard', 'config_control_design', 1994, #142 ) ;
#299 = ADVANCED_FACE ( 'NONE', ( #175 ), #257, .T. ) ;
#300 = CARTESIAN_POINT ( 'NONE',  ( 0.0000000000000000000, 0.0000000000000000000, 0.0000000000000000000 ) ) ;
#301 = VECTOR ( 'NONE', #223, 1000.000000000000000 ) ;
#302 = CC_DESIGN_PERSON_AND_ORGANIZATION_ASSIGNMENT ( #5, #122, ( #41 ) ) ;
#303 = CARTESIAN_POINT ( 'NONE',  ( 0.0000000000000000000, 0.0000000000000000000, 0.0000000000000000000 ) ) ;
#304 = PLANE ( 'NONE',  #166 ) ;
#305 = ADVANCED_FACE ( 'NONE', ( #133 ), #181, .F. ) ;
#306 = DIRECTION ( 'NONE',  ( -3.491481338843133355E-15, 1.224646799147353207E-16, -1.000000000000000000 ) ) ;
#307 = CIRCLE ( 'NONE', #335, 2.799999999999990052 ) ;
#308 = COORDINATED_UNIVERSAL_TIME_OFFSET ( 1, 0, .AHEAD. ) ;
#309 = DATE_AND_TIME ( #141, #132 ) ;
#310 = EDGE_LOOP ( 'NONE', ( #224, #104, #31, #222 ) ) ;
#311 = AXIS2_PLACEMENT_3D ( 'NONE', #283, #24, #51 ) ;
#312 = ORIENTED_EDGE ( 'NONE', *, *, #183, .F. ) ;
#313 = APPROVAL ( #52, 'UNSPECIFIED' ) ;
#314 = ORIENTED_EDGE ( 'NONE', *, *, #64, .T. ) ;
#315 = COORDINATED_UNIVERSAL_TIME_OFFSET ( 1, 0, .AHEAD. ) ;
#316 = EDGE_LOOP ( 'NONE', ( #193, #200 ) ) ;
#317 = DIRECTION ( 'NONE',  ( -3.491481338843133355E-15, 1.224646799147353207E-16, -1.000000000000000000 ) ) ;
#318 = CARTESIAN_POINT ( 'NONE',  ( 3.226128757091054463E-13, 2.799999999999990052, 92.39999999999997726 ) ) ;
#319 = VERTEX_POINT ( 'NONE', #118 ) ;
#320 = CARTESIAN_POINT ( 'NONE',  ( 5.874102188025332196E-15, -2.060357694712252421E-16, 1.682409733277181241 ) ) ;
#321 = CARTESIAN_POINT ( 'NONE',  ( 0.0000000000000000000, 0.0000000000000000000, 0.0000000000000000000 ) ) ;
#322 = CC_DESIGN_PERSON_AND_ORGANIZATION_ASSIGNMENT ( #71, #168, ( #274 ) ) ;
#323 = DIRECTION ( 'NONE',  ( 1.798245827342160317E-15, -0.8571673007021098911, 0.5150380749100582634 ) ) ;
#324 = DATE_AND_TIME ( #265, #187 ) ;
#325 = DIRECTION ( 'NONE',  ( 4.275831445896958607E-31, 1.000000000000000000, 1.224646799147353207E-16 ) ) ;
#326 = AXIS2_PLACEMENT_3D ( 'NONE', #195, #248, #68 ) ;
#327 = PERSON_AND_ORGANIZATION ( #271, #6 ) ;
#328 = CARTESIAN_POINT ( 'NONE',  ( 2.611565571153432557E-13, -2.800000000000003819, 57.00000000000000000 ) ) ;
#329 = DIRECTION ( 'NONE',  ( -3.491481338843133355E-15, 1.224646799147353207E-16, -1.000000000000000000 ) ) ;
#330 = CALENDAR_DATE ( 2021, 2, 9 ) ;
#331 = ADVANCED_FACE ( 'NONE', ( #216 ), #304, .F. ) ;
#332 = AXIS2_PLACEMENT_3D ( 'NONE', #67, #162, #90 ) ;
#333 = DIRECTION ( 'NONE',  ( 4.275831445896958607E-31, 1.000000000000000000, 1.224646799147353207E-16 ) ) ;
#334 = APPROVAL_STATUS ( 'not_yet_approved' ) ;
#335 = AXIS2_PLACEMENT_3D ( 'NONE', #230, #91, #264 ) ;
#336 = LOCAL_TIME ( 15, 22, 51.00000000000000000, #268 ) ;
#337 = DIRECTION ( 'NONE',  ( 0.0000000000000000000, 1.000000000000000000, 0.0000000000000000000 ) ) ;
ENDSEC;
END-ISO-10303-21;
