ISO-10303-21;
HEADER;
FILE_DESCRIPTION (( 'STEP AP203' ),
    '1' );
FILE_NAME ('41991.step',
    '2021-09-02T13:22:50',
    ( '' ),
    ( '' ),
    'SwSTEP 2.0',
    'SolidWorks 2019',
    '' );
FILE_SCHEMA (( 'CONFIG_CONTROL_DESIGN' ));
ENDSEC;

DATA;
#1 = EDGE_CURVE ( 'NONE', #331, #20, #263, .T. ) ;
#2 = MECHANICAL_CONTEXT ( 'NONE', #285, 'mechanical' ) ;
#3 = DIRECTION ( 'NONE',  ( 0.0000000000000000000, 0.0000000000000000000, 1.000000000000000000 ) ) ;
#4 = FACE_OUTER_BOUND ( 'NONE', #62, .T. ) ;
#5 = ADVANCED_FACE ( 'NONE', ( #12 ), #292, .T. ) ;
#6 = CARTESIAN_POINT ( 'NONE',  ( 0.0000000000000000000, 0.0000000000000000000, 0.0000000000000000000 ) ) ;
#7 = ORIENTED_EDGE ( 'NONE', *, *, #89, .F. ) ;
#8 = VECTOR ( 'NONE', #274, 999.9999999999998863 ) ;
#9 = APPROVAL_STATUS ( 'not_yet_approved' ) ;
#10 = PLANE ( 'NONE',  #192 ) ;
#11 = DESIGN_CONTEXT ( 'detailed design', #259, 'design' ) ;
#12 = FACE_OUTER_BOUND ( 'NONE', #52, .T. ) ;
#13 = CIRCLE ( 'NONE', #106, 2.299999999999981615 ) ;
#14 = LOCAL_TIME ( 15, 22, 50.00000000000000000, #24 ) ;
#15 = ORIENTED_EDGE ( 'NONE', *, *, #80, .F. ) ;
#16 =( NAMED_UNIT ( * ) SI_UNIT ( $, .STERADIAN. ) SOLID_ANGLE_UNIT ( ) );
#17 = ORIENTED_EDGE ( 'NONE', *, *, #31, .F. ) ;
#18 = CC_DESIGN_PERSON_AND_ORGANIZATION_ASSIGNMENT ( #154, #268, ( #184 ) ) ;
#19 = CONICAL_SURFACE ( 'NONE', #35, 1.799999999999991385, 0.7853981633974613796 ) ;
#20 = VERTEX_POINT ( 'NONE', #110 ) ;
#21 =( LENGTH_UNIT ( ) NAMED_UNIT ( * ) SI_UNIT ( .MILLI., .METRE. ) );
#22 = CARTESIAN_POINT ( 'NONE',  ( 4.825155368735073117E-15, -1.692436677799342640E-16, 1.381979423763392889 ) ) ;
#23 = AXIS2_PLACEMENT_3D ( 'NONE', #196, #128, #95 ) ;
#24 = COORDINATED_UNIVERSAL_TIME_OFFSET ( 1, 0, .AHEAD. ) ;
#25 = EDGE_LOOP ( 'NONE', ( #66, #257, #333, #39 ) ) ;
#26 = EDGE_CURVE ( 'NONE', #251, #331, #155, .T. ) ;
#27 = PLANE ( 'NONE',  #56 ) ;
#28 = AXIS2_PLACEMENT_3D ( 'NONE', #270, #238, #315 ) ;
#29 = CALENDAR_DATE ( 2021, 2, 9 ) ;
#30 = VECTOR ( 'NONE', #108, 1000.000000000000000 ) ;
#31 = EDGE_CURVE ( 'NONE', #251, #295, #162, .T. ) ;
#32 = CARTESIAN_POINT ( 'NONE',  ( 2.775727664380291585E-13, 2.299999999999981615, 79.50000000000001421 ) ) ;
#33 = PRODUCT_RELATED_PRODUCT_CATEGORY ( 'detail', '', ( #332 ) ) ;
#34 = DIRECTION ( 'NONE',  ( 0.0000000000000000000, 1.000000000000000000, 0.0000000000000000000 ) ) ;
#35 = AXIS2_PLACEMENT_3D ( 'NONE', #247, #216, #278 ) ;
#36 = PERSON_AND_ORGANIZATION_ROLE ( 'classification_officer' ) ;
#37 = ORIENTED_EDGE ( 'NONE', *, *, #151, .F. ) ;
#38 = ORIENTED_EDGE ( 'NONE', *, *, #75, .F. ) ;
#39 = ORIENTED_EDGE ( 'NONE', *, *, #298, .F. ) ;
#40 = AXIS2_PLACEMENT_3D ( 'NONE', #171, #256, #73 ) ;
#41 = VERTEX_POINT ( 'NONE', #205 ) ;
#42 = EDGE_CURVE ( 'NONE', #242, #41, #68, .T. ) ;
#43 = FACE_OUTER_BOUND ( 'NONE', #323, .T. ) ;
#44 = DATE_AND_TIME ( #299, #51 ) ;
#45 = DIRECTION ( 'NONE',  ( 1.798245827342160317E-15, -0.8571673007021098911, 0.5150380749100582634 ) ) ;
#46 = CC_DESIGN_APPROVAL ( #146, ( #184 ) ) ;
#47 = CYLINDRICAL_SURFACE ( 'NONE', #127, 2.299999999999984279 ) ;
#48 = ORIENTED_EDGE ( 'NONE', *, *, #280, .F. ) ;
#49 = PERSON_AND_ORGANIZATION_ROLE ( 'design_owner' ) ;
#50 = AXIS2_PLACEMENT_3D ( 'NONE', #191, #207, #82 ) ;
#51 = LOCAL_TIME ( 15, 22, 50.00000000000000000, #92 ) ;
#52 = EDGE_LOOP ( 'NONE', ( #71, #159, #239, #7 ) ) ;
#53 = MANIFOLD_SOLID_BREP ( 'Corps-Déplacer/Copier1[1]', #246 ) ;
#54 = DIRECTION ( 'NONE',  ( 0.0000000000000000000, 1.000000000000000000, 0.0000000000000000000 ) ) ;
#55 = PERSON_AND_ORGANIZATION ( #111, #74 ) ;
#56 = AXIS2_PLACEMENT_3D ( 'NONE', #150, #311, #76 ) ;
#57 = PERSON_AND_ORGANIZATION_ROLE ( 'design_supplier' ) ;
#58 = CARTESIAN_POINT ( 'NONE',  ( 2.795389435312971967E-13, -1.800000000000001155, 80.00000000000000000 ) ) ;
#59 = AXIS2_PLACEMENT_3D ( 'NONE', #264, #290, #34 ) ;
#60 = DIRECTION ( 'NONE',  ( -3.491481338843133355E-15, 1.224646799147353207E-16, -1.000000000000000000 ) ) ;
#61 = SECURITY_CLASSIFICATION ( '', '', #72 ) ;
#62 = EDGE_LOOP ( 'NONE', ( #37, #64 ) ) ;
#63 = CARTESIAN_POINT ( 'NONE',  ( 0.0000000000000000000, 0.0000000000000000000, 0.0000000000000000000 ) ) ;
#64 = ORIENTED_EDGE ( 'NONE', *, *, #42, .F. ) ;
#65 = DIRECTION ( 'NONE',  ( -3.491481338843133355E-15, 1.224646799147353207E-16, -1.000000000000000000 ) ) ;
#66 = ORIENTED_EDGE ( 'NONE', *, *, #26, .F. ) ;
#67 = DIRECTION ( 'NONE',  ( 0.0000000000000000000, 1.000000000000000000, 0.0000000000000000000 ) ) ;
#68 = CIRCLE ( 'NONE', #59, 2.299999999999987388 ) ;
#69 = CARTESIAN_POINT ( 'NONE',  ( 0.0000000000000000000, 0.0000000000000000000, 0.0000000000000000000 ) ) ;
#70 = CIRCLE ( 'NONE', #28, 2.299999999999981615 ) ;
#71 = ORIENTED_EDGE ( 'NONE', *, *, #1, .F. ) ;
#72 = SECURITY_CLASSIFICATION_LEVEL ( 'unclassified' ) ;
#73 = DIRECTION ( 'NONE',  ( 0.0000000000000000000, 1.000000000000000000, 0.0000000000000000000 ) ) ;
#74 = ORGANIZATION ( 'UNSPECIFIED', 'UNSPECIFIED', '' ) ;
#75 = EDGE_CURVE ( 'NONE', #284, #180, #13, .T. ) ;
#76 = DIRECTION ( 'NONE',  ( -4.275831445896958607E-31, -1.000000000000000000, -1.224646799147353207E-16 ) ) ;
#77 = AXIS2_PLACEMENT_3D ( 'NONE', #301, #65, #160 ) ;
#78 = ADVANCED_FACE ( 'NONE', ( #90 ), #237, .T. ) ;
#79 = CARTESIAN_POINT ( 'NONE',  ( 2.816687638038883953E-16, -2.299999999999984279, -2.816687638038903181E-16 ) ) ;
#80 = EDGE_CURVE ( 'NONE', #213, #331, #97, .T. ) ;
#81 = DIRECTION ( 'NONE',  ( 0.0000000000000000000, 1.000000000000000000, 0.0000000000000000000 ) ) ;
#82 = DIRECTION ( 'NONE',  ( 0.0000000000000000000, 1.000000000000000000, 0.0000000000000000000 ) ) ;
#83 = ADVANCED_FACE ( 'NONE', ( #291 ), #114, .F. ) ;
#84 = DIRECTION ( 'NONE',  ( -3.491481338843133355E-15, 1.224646799147353207E-16, -1.000000000000000000 ) ) ;
#85 = AXIS2_PLACEMENT_3D ( 'NONE', #326, #88, #81 ) ;
#86 = LINE ( 'NONE', #244, #8 ) ;
#87 = ORIENTED_EDGE ( 'NONE', *, *, #42, .T. ) ;
#88 = DIRECTION ( 'NONE',  ( -3.491481338843133355E-15, 1.224646799147353207E-16, -1.000000000000000000 ) ) ;
#89 = EDGE_CURVE ( 'NONE', #20, #269, #202, .T. ) ;
#90 = FACE_OUTER_BOUND ( 'NONE', #190, .T. ) ;
#91 = CONICAL_SURFACE ( 'NONE', #267, 2.299999999999981615, 1.029744258676649649 ) ;
#92 = COORDINATED_UNIVERSAL_TIME_OFFSET ( 1, 0, .AHEAD. ) ;
#93 = ORIENTED_EDGE ( 'NONE', *, *, #169, .T. ) ;
#94 = FACE_OUTER_BOUND ( 'NONE', #25, .T. ) ;
#95 = DIRECTION ( 'NONE',  ( 4.275831445896959482E-31, 1.000000000000000000, 1.224646799147353207E-16 ) ) ;
#96 = DIRECTION ( 'NONE',  ( -3.491481338843133355E-15, 1.224646799147353207E-16, -1.000000000000000000 ) ) ;
#97 = CIRCLE ( 'NONE', #50, 2.299999999999991385 ) ;
#98 = ORIENTED_EDGE ( 'NONE', *, *, #195, .F. ) ;
#99 = CIRCLE ( 'NONE', #85, 2.299999999999987388 ) ;
#100 = CC_DESIGN_PERSON_AND_ORGANIZATION_ASSIGNMENT ( #309, #49, ( #332 ) ) ;
#101 = CLOSED_SHELL ( 'NONE', ( #329, #310, #78, #287, #271 ) ) ;
#102 = VERTEX_POINT ( 'NONE', #6 ) ;
#103 = CIRCLE ( 'NONE', #135, 2.299999999999987388 ) ;
#104 = CC_DESIGN_DATE_AND_TIME_ASSIGNMENT ( #200, #322, ( #303 ) ) ;
#105 = ADVANCED_FACE ( 'NONE', ( #230 ), #10, .F. ) ;
#106 = AXIS2_PLACEMENT_3D ( 'NONE', #153, #281, #193 ) ;
#107 = CYLINDRICAL_SURFACE ( 'NONE', #157, 2.299999999999989608 ) ;
#108 = DIRECTION ( 'NONE',  ( -3.491481338843133355E-15, 1.224646799147353207E-16, -1.000000000000000000 ) ) ;
#109 = DIRECTION ( 'NONE',  ( -2.382254525458682760E-15, -0.7071067811865566766, -0.7071067811865383579 ) ) ;
#110 = CARTESIAN_POINT ( 'NONE',  ( 2.211178634456321027E-13, -2.299999999999993161, 47.00000000000000000 ) ) ;
#111 = PERSON ( 'UNSPECIFIED', 'UNSPECIFIED', 'UNSPECIFIED', ('UNSPECIFIED'), ('UNSPECIFIED'), ('UNSPECIFIED') ) ;
#112 = COORDINATED_UNIVERSAL_TIME_OFFSET ( 1, 0, .AHEAD. ) ;
#113 = ORIENTED_EDGE ( 'NONE', *, *, #255, .F. ) ;
#114 = PLANE ( 'NONE',  #144 ) ;
#115 =( NAMED_UNIT ( * ) PLANE_ANGLE_UNIT ( ) SI_UNIT ( $, .RADIAN. ) );
#116 = ORIENTED_EDGE ( 'NONE', *, *, #132, .F. ) ;
#117 = COORDINATED_UNIVERSAL_TIME_OFFSET ( 1, 0, .AHEAD. ) ;
#118 = ORIENTED_EDGE ( 'NONE', *, *, #280, .T. ) ;
#119 = PERSON_AND_ORGANIZATION ( #111, #74 ) ;
#120 = ORIENTED_EDGE ( 'NONE', *, *, #80, .T. ) ;
#121 = ADVANCED_FACE ( 'NONE', ( #234 ), #107, .T. ) ;
#122 = CC_DESIGN_SECURITY_CLASSIFICATION ( #61, ( #184 ) ) ;
#123 = ORIENTED_EDGE ( 'NONE', *, *, #26, .T. ) ;
#124 = DIRECTION ( 'NONE',  ( 0.0000000000000000000, 1.000000000000000000, 0.0000000000000000000 ) ) ;
#125 = DIRECTION ( 'NONE',  ( -3.349443381543045682E-31, -1.000000000000000000, -9.427844978134896622E-17 ) ) ;
#126 = DIRECTION ( 'NONE',  ( 3.491481338843133355E-15, -1.224646799147353207E-16, 1.000000000000000000 ) ) ;
#127 = AXIS2_PLACEMENT_3D ( 'NONE', #69, #177, #236 ) ;
#128 = DIRECTION ( 'NONE',  ( -3.491481338843133355E-15, 1.224646799147353207E-16, -1.000000000000000000 ) ) ;
#129 = DIRECTION ( 'NONE',  ( -3.491481338843133355E-15, 1.224646799147353207E-16, -1.000000000000000000 ) ) ;
#130 = DIRECTION ( 'NONE',  ( 1.000000000000000000, 0.0000000000000000000, 0.0000000000000000000 ) ) ;
#131 = LOCAL_TIME ( 15, 22, 50.00000000000000000, #327 ) ;
#132 = EDGE_CURVE ( 'NONE', #242, #180, #312, .T. ) ;
#133 = EDGE_CURVE ( 'NONE', #41, #284, #172, .T. ) ;
#134 = DIRECTION ( 'NONE',  ( 4.275831445896959482E-31, 1.000000000000000000, 1.224646799147353207E-16 ) ) ;
#135 = AXIS2_PLACEMENT_3D ( 'NONE', #305, #164, #124 ) ;
#136 = CARTESIAN_POINT ( 'NONE',  ( 2.793185071074506684E-13, 1.799999999999981837, 80.00000000000000000 ) ) ;
#137 = UNCERTAINTY_MEASURE_WITH_UNIT (LENGTH_MEASURE( 1.000000000000000082E-05 ), #21, 'distance_accuracy_value', 'NONE');
#138 = CARTESIAN_POINT ( 'NONE',  ( 2.793185071074506684E-13, 1.349783804395650773E-32, 80.00000000000000000 ) ) ;
#139 = ORIENTED_EDGE ( 'NONE', *, *, #133, .T. ) ;
#140 = CARTESIAN_POINT ( 'NONE',  ( 4.825155368735073117E-15, -1.692436677799342640E-16, 1.381979423763392889 ) ) ;
#141 = CC_DESIGN_PERSON_AND_ORGANIZATION_ASSIGNMENT ( #229, #288, ( #303 ) ) ;
#142 = CARTESIAN_POINT ( 'NONE',  ( 5.106824132538962696E-15, 2.299999999999981615, 1.381979423763393111 ) ) ;
#143 = CARTESIAN_POINT ( 'NONE',  ( 4.825155368735072328E-15, -2.299999999999981615, 1.381979423763392667 ) ) ;
#144 = AXIS2_PLACEMENT_3D ( 'NONE', #241, #294, #262 ) ;
#145 = VECTOR ( 'NONE', #129, 1000.000000000000000 ) ;
#146 = APPROVAL ( #9, 'UNSPECIFIED' ) ;
#147 = CC_DESIGN_DATE_AND_TIME_ASSIGNMENT ( #188, #248, ( #61 ) ) ;
#148 = VECTOR ( 'NONE', #289, 1000.000000000000000 ) ;
#149 = AXIS2_PLACEMENT_3D ( 'NONE', #304, #96, #67 ) ;
#150 = CARTESIAN_POINT ( 'NONE',  ( 1.640996229256272803E-13, 1.724723750061117912E-32, 47.00000000000000000 ) ) ;
#151 = EDGE_CURVE ( 'NONE', #41, #242, #103, .T. ) ;
#152 = CARTESIAN_POINT ( 'NONE',  ( 1.640996229256272803E-13, -5.755839955992560641E-15, 47.00000000000000000 ) ) ;
#153 = CARTESIAN_POINT ( 'NONE',  ( 4.825155368735073117E-15, -1.692436677799342640E-16, 1.381979423763392889 ) ) ;
#154 = PERSON_AND_ORGANIZATION ( #111, #74 ) ;
#155 = LINE ( 'NONE', #58, #319 ) ;
#156 = ORIENTED_EDGE ( 'NONE', *, *, #133, .F. ) ;
#157 = AXIS2_PLACEMENT_3D ( 'NONE', #211, #325, #134 ) ;
#158 = ORIENTED_EDGE ( 'NONE', *, *, #151, .T. ) ;
#159 = ORIENTED_EDGE ( 'NONE', *, *, #298, .T. ) ;
#160 = DIRECTION ( 'NONE',  ( 0.0000000000000000000, 1.000000000000000000, 0.0000000000000000000 ) ) ;
#161 = EDGE_LOOP ( 'NONE', ( #158, #168, #38, #156 ) ) ;
#162 = CIRCLE ( 'NONE', #201, 1.799999999999991385 ) ;
#163 = VECTOR ( 'NONE', #334, 999.9999999999998863 ) ;
#164 = DIRECTION ( 'NONE',  ( -3.491481338843133355E-15, 1.224646799147353207E-16, -1.000000000000000000 ) ) ;
#165 = LOCAL_TIME ( 15, 22, 50.00000000000000000, #117 ) ;
#166 = APPROVAL_DATE_TIME ( #44, #324 ) ;
#167 = PERSON_AND_ORGANIZATION ( #111, #74 ) ;
#168 = ORIENTED_EDGE ( 'NONE', *, *, #132, .T. ) ;
#169 = EDGE_CURVE ( 'NONE', #102, #180, #223, .T. ) ;
#170 = CONICAL_SURFACE ( 'NONE', #77, 1.799999999999991385, 0.7853981633974613796 ) ;
#171 = CARTESIAN_POINT ( 'NONE',  ( 2.793185071074506684E-13, -9.797174393178826052E-15, 80.00000000000000000 ) ) ;
#172 = LINE ( 'NONE', #204, #330 ) ;
#173 = CARTESIAN_POINT ( 'NONE',  ( 2.793185071074506684E-13, -9.797174393178826052E-15, 80.00000000000000000 ) ) ;
#174 = APPROVAL_ROLE ( '' ) ;
#175 = DIRECTION ( 'NONE',  ( -3.491481338843133355E-15, 1.224646799147353207E-16, -1.000000000000000000 ) ) ;
#176 = CIRCLE ( 'NONE', #40, 1.799999999999991385 ) ;
#177 = DIRECTION ( 'NONE',  ( -3.491481338843133355E-15, 1.224646799147353207E-16, -1.000000000000000000 ) ) ;
#178 = DATE_AND_TIME ( #206, #307 ) ;
#179 = APPROVAL_DATE_TIME ( #178, #146 ) ;
#180 = VERTEX_POINT ( 'NONE', #143 ) ;
#181 = DIRECTION ( 'NONE',  ( -3.491481338843133355E-15, 1.224646799147353207E-16, -1.000000000000000000 ) ) ;
#182 = CARTESIAN_POINT ( 'NONE',  ( 0.0000000000000000000, 0.0000000000000000000, 0.0000000000000000000 ) ) ;
#183 = ORIENTED_EDGE ( 'NONE', *, *, #308, .F. ) ;
#184 = PRODUCT_DEFINITION_FORMATION_WITH_SPECIFIED_SOURCE ( 'ANY', '', #332, .NOT_KNOWN. ) ;
#185 = EDGE_LOOP ( 'NONE', ( #118, #123, #15, #113 ) ) ;
#186 = FACE_OUTER_BOUND ( 'NONE', #161, .T. ) ;
#187 = CARTESIAN_POINT ( 'NONE',  ( 2.211178634456320522E-13, -2.300000000000000711, 79.50000000000001421 ) ) ;
#188 = DATE_AND_TIME ( #302, #165 ) ;
#189 = APPLICATION_PROTOCOL_DEFINITION ( 'international standard', 'config_control_design', 1994, #259 ) ;
#190 = EDGE_LOOP ( 'NONE', ( #183, #93, #282 ) ) ;
#191 = CARTESIAN_POINT ( 'NONE',  ( 2.775727664380291585E-13, -9.735942053221460055E-15, 79.50000000000001421 ) ) ;
#192 = AXIS2_PLACEMENT_3D ( 'NONE', #138, #181, #318 ) ;
#193 = DIRECTION ( 'NONE',  ( 3.349443381543045682E-31, 1.000000000000000000, 9.427844978134896622E-17 ) ) ;
#194 = APPROVAL_STATUS ( 'not_yet_approved' ) ;
#195 = EDGE_CURVE ( 'NONE', #180, #284, #70, .T. ) ;
#196 = CARTESIAN_POINT ( 'NONE',  ( 0.0000000000000000000, 0.0000000000000000000, 0.0000000000000000000 ) ) ;
#197 = FACE_OUTER_BOUND ( 'NONE', #275, .T. ) ;
#198 = CALENDAR_DATE ( 2021, 2, 9 ) ;
#199 = AXIS2_PLACEMENT_3D ( 'NONE', #152, #84, #258 ) ;
#200 = DATE_AND_TIME ( #198, #131 ) ;
#201 = AXIS2_PLACEMENT_3D ( 'NONE', #173, #60, #54 ) ;
#202 = CIRCLE ( 'NONE', #199, 2.299999999999987388 ) ;
#203 = ORIENTED_EDGE ( 'NONE', *, *, #212, .F. ) ;
#204 = CARTESIAN_POINT ( 'NONE',  ( 9.834412325562938759E-31, 2.299999999999984279, 2.816687638038893321E-16 ) ) ;
#205 = CARTESIAN_POINT ( 'NONE',  ( 1.640996229256272803E-13, 2.299999999999981615, 47.00000000000000000 ) ) ;
#206 = CALENDAR_DATE ( 2021, 2, 9 ) ;
#207 = DIRECTION ( 'NONE',  ( -3.491481338843133355E-15, 1.224646799147353207E-16, -1.000000000000000000 ) ) ;
#208 = EDGE_CURVE ( 'NONE', #213, #269, #293, .T. ) ;
#209 = EDGE_LOOP ( 'NONE', ( #300, #219 ) ) ;
#210 = APPROVAL_PERSON_ORGANIZATION ( #119, #324, #214 ) ;
#211 = CARTESIAN_POINT ( 'NONE',  ( 0.0000000000000000000, 0.0000000000000000000, 0.0000000000000000000 ) ) ;
#212 = EDGE_CURVE ( 'NONE', #269, #20, #99, .T. ) ;
#213 = VERTEX_POINT ( 'NONE', #32 ) ;
#214 = APPROVAL_ROLE ( '' ) ;
#215 = ORIENTED_EDGE ( 'NONE', *, *, #75, .T. ) ;
#216 = DIRECTION ( 'NONE',  ( -3.491481338843133355E-15, 1.224646799147353207E-16, -1.000000000000000000 ) ) ;
#217 = PRODUCT_DEFINITION_SHAPE ( 'NONE', 'NONE',  #303 ) ;
#218 = PERSON_AND_ORGANIZATION ( #111, #74 ) ;
#219 = ORIENTED_EDGE ( 'NONE', *, *, #89, .T. ) ;
#220 = LINE ( 'NONE', #142, #163 ) ;
#221 = APPROVAL_ROLE ( '' ) ;
#222 = ADVANCED_FACE ( 'NONE', ( #261 ), #19, .T. ) ;
#223 = LINE ( 'NONE', #279, #224 ) ;
#224 = VECTOR ( 'NONE', #45, 1000.000000000000000 ) ;
#225 = CARTESIAN_POINT ( 'NONE',  ( 1.640996229256272803E-13, 2.299999999999981615, 47.00000000000000000 ) ) ;
#226 = APPROVAL_PERSON_ORGANIZATION ( #218, #313, #221 ) ;
#227 = CYLINDRICAL_SURFACE ( 'NONE', #23, 2.299999999999984279 ) ;
#228 = ADVANCED_BREP_SHAPE_REPRESENTATION ( '41991', ( #53, #286, #252 ), #336 ) ;
#229 = PERSON_AND_ORGANIZATION ( #111, #74 ) ;
#230 = FACE_OUTER_BOUND ( 'NONE', #283, .T. ) ;
#231 = ORIENTED_EDGE ( 'NONE', *, *, #308, .T. ) ;
#232 = PERSON_AND_ORGANIZATION ( #111, #74 ) ;
#233 = CC_DESIGN_PERSON_AND_ORGANIZATION_ASSIGNMENT ( #167, #36, ( #61 ) ) ;
#234 = FACE_OUTER_BOUND ( 'NONE', #254, .T. ) ;
#235 = CARTESIAN_POINT ( 'NONE',  ( 2.816687638038889869E-16, -2.299999999999989608, -2.816687638038909098E-16 ) ) ;
#236 = DIRECTION ( 'NONE',  ( 4.275831445896959482E-31, 1.000000000000000000, 1.224646799147353207E-16 ) ) ;
#237 = CONICAL_SURFACE ( 'NONE', #296, 2.299999999999981615, 1.029744258676649649 ) ;
#238 = DIRECTION ( 'NONE',  ( -3.491481338843133355E-15, 1.224646799147353207E-16, -1.000000000000000000 ) ) ;
#239 = ORIENTED_EDGE ( 'NONE', *, *, #208, .T. ) ;
#240 = CC_DESIGN_APPROVAL ( #324, ( #61 ) ) ;
#241 = CARTESIAN_POINT ( 'NONE',  ( 1.640996229256272803E-13, 1.724723750061117912E-32, 47.00000000000000000 ) ) ;
#242 = VERTEX_POINT ( 'NONE', #249 ) ;
#243 = DIRECTION ( 'NONE',  ( -3.349443381543045682E-31, -1.000000000000000000, -9.427844978134896622E-17 ) ) ;
#244 = CARTESIAN_POINT ( 'NONE',  ( 2.793185071074506684E-13, 1.799999999999981837, 80.00000000000000000 ) ) ;
#245 = DIRECTION ( 'NONE',  ( 3.491481338843133355E-15, -1.224646799147353207E-16, 1.000000000000000000 ) ) ;
#246 = CLOSED_SHELL ( 'NONE', ( #222, #121, #83, #5, #250, #105 ) ) ;
#247 = CARTESIAN_POINT ( 'NONE',  ( 2.793185071074506684E-13, -9.797174393178826052E-15, 80.00000000000000000 ) ) ;
#248 = DATE_TIME_ROLE ( 'classification_date' ) ;
#249 = CARTESIAN_POINT ( 'NONE',  ( 8.474405791098484897E-14, -2.299999999999993161, 47.00000000000000000 ) ) ;
#250 = ADVANCED_FACE ( 'NONE', ( #94 ), #170, .T. ) ;
#251 = VERTEX_POINT ( 'NONE', #273 ) ;
#252 = AXIS2_PLACEMENT_3D ( 'NONE', #63, #3, #130 ) ;
#253 = CARTESIAN_POINT ( 'NONE',  ( 5.106824132538962696E-15, 2.299999999999981615, 1.381979423763393111 ) ) ;
#254 = EDGE_LOOP ( 'NONE', ( #120, #321, #203, #297 ) ) ;
#255 = EDGE_CURVE ( 'NONE', #295, #213, #86, .T. ) ;
#256 = DIRECTION ( 'NONE',  ( -3.491481338843133355E-15, 1.224646799147353207E-16, -1.000000000000000000 ) ) ;
#257 = ORIENTED_EDGE ( 'NONE', *, *, #31, .T. ) ;
#258 = DIRECTION ( 'NONE',  ( 0.0000000000000000000, 1.000000000000000000, 0.0000000000000000000 ) ) ;
#259 = APPLICATION_CONTEXT ( 'configuration controlled 3d designs of mechanical parts and assemblies' ) ;
#260 = CC_DESIGN_PERSON_AND_ORGANIZATION_ASSIGNMENT ( #55, #57, ( #184 ) ) ;
#261 = FACE_OUTER_BOUND ( 'NONE', #185, .T. ) ;
#262 = DIRECTION ( 'NONE',  ( -4.275831445896958607E-31, -1.000000000000000000, -1.224646799147353207E-16 ) ) ;
#263 = LINE ( 'NONE', #235, #148 ) ;
#264 = CARTESIAN_POINT ( 'NONE',  ( 1.640996229256272803E-13, -5.755839955992560641E-15, 47.00000000000000000 ) ) ;
#265 = DATE_AND_TIME ( #29, #14 ) ;
#266 = APPLICATION_PROTOCOL_DEFINITION ( 'international standard', 'config_control_design', 1994, #285 ) ;
#267 = AXIS2_PLACEMENT_3D ( 'NONE', #22, #126, #243 ) ;
#268 = PERSON_AND_ORGANIZATION_ROLE ( 'creator' ) ;
#269 = VERTEX_POINT ( 'NONE', #225 ) ;
#270 = CARTESIAN_POINT ( 'NONE',  ( 4.825155368735073117E-15, -1.692436677799342640E-16, 1.381979423763392889 ) ) ;
#271 = ADVANCED_FACE ( 'NONE', ( #4 ), #27, .T. ) ;
#272 = ORIENTED_EDGE ( 'NONE', *, *, #169, .F. ) ;
#273 = CARTESIAN_POINT ( 'NONE',  ( 2.786966893665651319E-13, -1.800000000000001155, 80.00000000000000000 ) ) ;
#274 = DIRECTION ( 'NONE',  ( -2.468850131082233000E-15, 0.7071067811865568986, -0.7071067811865382469 ) ) ;
#275 = EDGE_LOOP ( 'NONE', ( #116, #87, #139, #98 ) ) ;
#276 = AXIS2_PLACEMENT_3D ( 'NONE', #182, #316, #314 ) ;
#277 = CC_DESIGN_APPROVAL ( #313, ( #303 ) ) ;
#278 = DIRECTION ( 'NONE',  ( 0.0000000000000000000, 1.000000000000000000, 0.0000000000000000000 ) ) ;
#279 = CARTESIAN_POINT ( 'NONE',  ( 4.825155368735072328E-15, -2.299999999999981615, 1.381979423763392667 ) ) ;
#280 = EDGE_CURVE ( 'NONE', #295, #251, #176, .T. ) ;
#281 = DIRECTION ( 'NONE',  ( -3.491481338843133355E-15, 1.224646799147353207E-16, -1.000000000000000000 ) ) ;
#282 = ORIENTED_EDGE ( 'NONE', *, *, #195, .T. ) ;
#283 = EDGE_LOOP ( 'NONE', ( #48, #17 ) ) ;
#284 = VERTEX_POINT ( 'NONE', #253 ) ;
#285 = APPLICATION_CONTEXT ( 'configuration controlled 3d designs of mechanical parts and assemblies' ) ;
#286 = MANIFOLD_SOLID_BREP ( 'Corps-Déplacer/Copier1[2]', #101 ) ;
#287 = ADVANCED_FACE ( 'NONE', ( #197 ), #47, .T. ) ;
#288 = PERSON_AND_ORGANIZATION_ROLE ( 'creator' ) ;
#289 = DIRECTION ( 'NONE',  ( -3.491481338843133355E-15, 1.224646799147353207E-16, -1.000000000000000000 ) ) ;
#290 = DIRECTION ( 'NONE',  ( -3.491481338843133355E-15, 1.224646799147353207E-16, -1.000000000000000000 ) ) ;
#291 = FACE_OUTER_BOUND ( 'NONE', #209, .T. ) ;
#292 = CYLINDRICAL_SURFACE ( 'NONE', #276, 2.299999999999989608 ) ;
#293 = LINE ( 'NONE', #337, #145 ) ;
#294 = DIRECTION ( 'NONE',  ( 3.491481338843133355E-15, -1.224646799147353207E-16, 1.000000000000000000 ) ) ;
#295 = VERTEX_POINT ( 'NONE', #136 ) ;
#296 = AXIS2_PLACEMENT_3D ( 'NONE', #140, #245, #125 ) ;
#297 = ORIENTED_EDGE ( 'NONE', *, *, #208, .F. ) ;
#298 = EDGE_CURVE ( 'NONE', #331, #213, #306, .T. ) ;
#299 = CALENDAR_DATE ( 2021, 2, 9 ) ;
#300 = ORIENTED_EDGE ( 'NONE', *, *, #212, .T. ) ;
#301 = CARTESIAN_POINT ( 'NONE',  ( 2.793185071074506684E-13, -9.797174393178826052E-15, 80.00000000000000000 ) ) ;
#302 = CALENDAR_DATE ( 2021, 2, 9 ) ;
#303 = PRODUCT_DEFINITION ( 'UNKNOWN', '', #184, #11 ) ;
#304 = CARTESIAN_POINT ( 'NONE',  ( 2.775727664380291585E-13, -9.735942053221460055E-15, 79.50000000000001421 ) ) ;
#305 = CARTESIAN_POINT ( 'NONE',  ( 1.640996229256272803E-13, -5.755839955992560641E-15, 47.00000000000000000 ) ) ;
#306 = CIRCLE ( 'NONE', #149, 2.299999999999991385 ) ;
#307 = LOCAL_TIME ( 15, 22, 50.00000000000000000, #112 ) ;
#308 = EDGE_CURVE ( 'NONE', #102, #284, #220, .T. ) ;
#309 = PERSON_AND_ORGANIZATION ( #111, #74 ) ;
#310 = ADVANCED_FACE ( 'NONE', ( #43 ), #91, .T. ) ;
#311 = DIRECTION ( 'NONE',  ( 3.491481338843133355E-15, -1.224646799147353207E-16, 1.000000000000000000 ) ) ;
#312 = LINE ( 'NONE', #79, #30 ) ;
#313 = APPROVAL ( #194, 'UNSPECIFIED' ) ;
#314 = DIRECTION ( 'NONE',  ( 4.275831445896959482E-31, 1.000000000000000000, 1.224646799147353207E-16 ) ) ;
#315 = DIRECTION ( 'NONE',  ( 3.349443381543045682E-31, 1.000000000000000000, 9.427844978134896622E-17 ) ) ;
#316 = DIRECTION ( 'NONE',  ( -3.491481338843133355E-15, 1.224646799147353207E-16, -1.000000000000000000 ) ) ;
#317 = APPROVAL_DATE_TIME ( #265, #313 ) ;
#318 = DIRECTION ( 'NONE',  ( 4.275831445896958607E-31, 1.000000000000000000, 1.224646799147353207E-16 ) ) ;
#319 = VECTOR ( 'NONE', #109, 1000.000000000000000 ) ;
#320 = APPROVAL_PERSON_ORGANIZATION ( #232, #146, #174 ) ;
#321 = ORIENTED_EDGE ( 'NONE', *, *, #1, .T. ) ;
#322 = DATE_TIME_ROLE ( 'creation_date' ) ;
#323 = EDGE_LOOP ( 'NONE', ( #272, #231, #215 ) ) ;
#324 = APPROVAL ( #328, 'UNSPECIFIED' ) ;
#325 = DIRECTION ( 'NONE',  ( -3.491481338843133355E-15, 1.224646799147353207E-16, -1.000000000000000000 ) ) ;
#326 = CARTESIAN_POINT ( 'NONE',  ( 1.640996229256272803E-13, -5.755839955992560641E-15, 47.00000000000000000 ) ) ;
#327 = COORDINATED_UNIVERSAL_TIME_OFFSET ( 1, 0, .AHEAD. ) ;
#328 = APPROVAL_STATUS ( 'not_yet_approved' ) ;
#329 = ADVANCED_FACE ( 'NONE', ( #186 ), #227, .T. ) ;
#330 = VECTOR ( 'NONE', #175, 1000.000000000000000 ) ;
#331 = VERTEX_POINT ( 'NONE', #187 ) ;
#332 = PRODUCT ( '41991', '41991', '', ( #2 ) ) ;
#333 = ORIENTED_EDGE ( 'NONE', *, *, #255, .T. ) ;
#334 = DIRECTION ( 'NONE',  ( 1.903218546456022717E-15, 0.8571673007021097801, 0.5150380749100585964 ) ) ;
#335 = SHAPE_DEFINITION_REPRESENTATION ( #217, #228 ) ;
#336 =( GEOMETRIC_REPRESENTATION_CONTEXT ( 3 ) GLOBAL_UNCERTAINTY_ASSIGNED_CONTEXT ( ( #137 ) ) GLOBAL_UNIT_ASSIGNED_CONTEXT ( ( #21, #115, #16 ) ) REPRESENTATION_CONTEXT ( 'NONE', 'WORKASPACE' ) );
#337 = CARTESIAN_POINT ( 'NONE',  ( 9.834412325562961530E-31, 2.299999999999989608, 2.816687638038899730E-16 ) ) ;
ENDSEC;
END-ISO-10303-21;
