ISO-10303-21;
HEADER;
FILE_DESCRIPTION (( 'STEP AP203' ),
    '1' );
FILE_NAME ('41928.step',
    '2021-11-01T10:35:13',
    ( '' ),
    ( '' ),
    'SwSTEP 2.0',
    'SolidWorks 2019',
    '' );
FILE_SCHEMA (( 'CONFIG_CONTROL_DESIGN' ));
ENDSEC;

DATA;
#1 = VERTEX_POINT ( 'NONE', #53 ) ;
#2 =( NAMED_UNIT ( * ) PLANE_ANGLE_UNIT ( ) SI_UNIT ( $, .RADIAN. ) );
#3 = APPROVAL_ROLE ( '' ) ;
#4 = APPROVAL ( #180, 'UNSPECIFIED' ) ;
#5 = ORIENTED_EDGE ( 'NONE', *, *, #65, .F. ) ;
#6 = CIRCLE ( 'NONE', #95, 1.749999999999997113 ) ;
#7 = SECURITY_CLASSIFICATION_LEVEL ( 'unclassified' ) ;
#8 = EDGE_LOOP ( 'NONE', ( #42 ) ) ;
#9 = ADVANCED_FACE ( 'NONE', ( #80 ), #198, .F. ) ;
#10 = CARTESIAN_POINT ( 'NONE',  ( -7.500247226772390612E-31, 3.819917276719498622E-33, -2.148156183259888243E-16 ) ) ;
#11 = ADVANCED_FACE ( 'NONE', ( #129, #117 ), #151, .T. ) ;
#12 = CARTESIAN_POINT ( 'NONE',  ( 2.444036937190193033E-14, 2.249639673992782580E-32, 6.999999999999999112 ) ) ;
#13 = CARTESIAN_POINT ( 'NONE',  ( 1.990144363140586139E-13, -6.980486755139912911E-15, 57.00000000000000000 ) ) ;
#14 = DIRECTION ( 'NONE',  ( -3.491481338843133355E-15, 1.224646799147353207E-16, -1.000000000000000000 ) ) ;
#15 = CARTESIAN_POINT ( 'NONE',  ( 2.444036937190192718E-14, 0.0000000000000000000, 6.999999999999998224 ) ) ;
#16 = APPROVAL_STATUS ( 'not_yet_approved' ) ;
#17 = AXIS2_PLACEMENT_3D ( 'NONE', #219, #14, #101 ) ;
#18 = CARTESIAN_POINT ( 'NONE',  ( 2.444036937190192718E-14, -1.749999999999998002, 6.999999999999998224 ) ) ;
#19 = PERSON_AND_ORGANIZATION_ROLE ( 'design_owner' ) ;
#20 = ADVANCED_FACE ( 'NONE', ( #217, #115 ), #127, .F. ) ;
#21 = ORIENTED_EDGE ( 'NONE', *, *, #107, .F. ) ;
#22 = PRODUCT ( '41928', '41928', '', ( #178 ) ) ;
#23 = EDGE_LOOP ( 'NONE', ( #128 ) ) ;
#24 = AXIS2_PLACEMENT_3D ( 'NONE', #132, #119, #174 ) ;
#25 = PRODUCT_RELATED_PRODUCT_CATEGORY ( 'detail', '', ( #22 ) ) ;
#26 = CALENDAR_DATE ( 2021, 1, 11 ) ;
#27 = DATE_AND_TIME ( #26, #108 ) ;
#28 = CARTESIAN_POINT ( 'NONE',  ( 2.444036937190192718E-14, -8.592624733039554945E-16, 6.999999999999998224 ) ) ;
#29 = FACE_BOUND ( 'NONE', #97, .T. ) ;
#30 = DIRECTION ( 'NONE',  ( 3.491481338843133355E-15, -1.227517819005651059E-16, 1.000000000000000000 ) ) ;
#31 = PERSON ( 'UNSPECIFIED', 'UNSPECIFIED', 'UNSPECIFIED', ('UNSPECIFIED'), ('UNSPECIFIED'), ('UNSPECIFIED') ) ;
#32 = DIRECTION ( 'NONE',  ( -3.491481338843133355E-15, 1.224646799147353207E-16, -1.000000000000000000 ) ) ;
#33 = APPROVAL_PERSON_ORGANIZATION ( #160, #149, #3 ) ;
#34 = FACE_OUTER_BOUND ( 'NONE', #162, .T. ) ;
#35 = CC_DESIGN_PERSON_AND_ORGANIZATION_ASSIGNMENT ( #113, #79, ( #38 ) ) ;
#36 = DIRECTION ( 'NONE',  ( 0.0000000000000000000, 0.0000000000000000000, 1.000000000000000000 ) ) ;
#37 = COORDINATED_UNIVERSAL_TIME_OFFSET ( 1, 0, .AHEAD. ) ;
#38 = PRODUCT_DEFINITION_FORMATION_WITH_SPECIFIED_SOURCE ( 'ANY', '', #22, .NOT_KNOWN. ) ;
#39 = PERSON_AND_ORGANIZATION ( #31, #138 ) ;
#40 = PRODUCT_DEFINITION_SHAPE ( 'NONE', 'NONE',  #77 ) ;
#41 = APPROVAL_PERSON_ORGANIZATION ( #39, #56, #58 ) ;
#42 = ORIENTED_EDGE ( 'NONE', *, *, #196, .F. ) ;
#43 = DATE_TIME_ROLE ( 'creation_date' ) ;
#44 = DIRECTION ( 'NONE',  ( 3.491481338843133355E-15, -1.224646799147353207E-16, 1.000000000000000000 ) ) ;
#45 = COORDINATED_UNIVERSAL_TIME_OFFSET ( 1, 0, .AHEAD. ) ;
#46 = ORIENTED_EDGE ( 'NONE', *, *, #156, .F. ) ;
#47 = CARTESIAN_POINT ( 'NONE',  ( 1.990144363140586139E-13, 1.949687717460406406E-32, 57.00000000000000000 ) ) ;
#48 = AXIS2_PLACEMENT_3D ( 'NONE', #47, #88, #140 ) ;
#49 = DIRECTION ( 'NONE',  ( -3.491481338843133355E-15, 1.227517819005651059E-16, -1.000000000000000000 ) ) ;
#50 = EDGE_CURVE ( 'NONE', #159, #159, #181, .T. ) ;
#51 = PLANE ( 'NONE',  #220 ) ;
#52 =( GEOMETRIC_REPRESENTATION_CONTEXT ( 3 ) GLOBAL_UNCERTAINTY_ASSIGNED_CONTEXT ( ( #141 ) ) GLOBAL_UNIT_ASSIGNED_CONTEXT ( ( #210, #2, #137 ) ) REPRESENTATION_CONTEXT ( 'NONE', 'WORKASPACE' ) );
#53 = CARTESIAN_POINT ( 'NONE',  ( -1.500049445354477947E-30, -1.749999999999998890, -4.296312366519775993E-16 ) ) ;
#54 = DESIGN_CONTEXT ( 'detailed design', #191, 'design' ) ;
#55 = CC_DESIGN_APPROVAL ( #4, ( #38 ) ) ;
#56 = APPROVAL ( #184, 'UNSPECIFIED' ) ;
#57 = APPROVAL_DATE_TIME ( #212, #149 ) ;
#58 = APPROVAL_ROLE ( '' ) ;
#59 = LOCAL_TIME ( 11, 35, 13.00000000000000000, #37 ) ;
#60 = PERSON_AND_ORGANIZATION ( #31, #138 ) ;
#61 = ORIENTED_EDGE ( 'NONE', *, *, #116, .F. ) ;
#62 = EDGE_LOOP ( 'NONE', ( #46 ) ) ;
#63 = DIRECTION ( 'NONE',  ( -4.275831445896958607E-31, -1.000000000000000000, -1.224646799147353207E-16 ) ) ;
#64 = CALENDAR_DATE ( 2021, 1, 11 ) ;
#65 = EDGE_CURVE ( 'NONE', #105, #105, #211, .T. ) ;
#66 = CARTESIAN_POINT ( 'NONE',  ( 0.0000000000000000000, 0.0000000000000000000, 0.0000000000000000000 ) ) ;
#67 = DIRECTION ( 'NONE',  ( -4.285855558155653280E-31, -1.000000000000000000, -1.227517819005651059E-16 ) ) ;
#68 = PLANE ( 'NONE',  #90 ) ;
#69 = CARTESIAN_POINT ( 'NONE',  ( 2.444036937190192718E-14, -8.592624733039554945E-16, 6.999999999999998224 ) ) ;
#70 = VERTEX_POINT ( 'NONE', #209 ) ;
#71 = CC_DESIGN_SECURITY_CLASSIFICATION ( #185, ( #38 ) ) ;
#72 = CARTESIAN_POINT ( 'NONE',  ( 2.444036937190192718E-14, -1.749999999999998002, 6.999999999999998224 ) ) ;
#73 = CARTESIAN_POINT ( 'NONE',  ( 0.0000000000000000000, 0.0000000000000000000, 0.0000000000000000000 ) ) ;
#74 = AXIS2_PLACEMENT_3D ( 'NONE', #28, #222, #100 ) ;
#75 = DATE_AND_TIME ( #91, #59 ) ;
#76 = EDGE_LOOP ( 'NONE', ( #5 ) ) ;
#77 = PRODUCT_DEFINITION ( 'UNKNOWN', '', #38, #54 ) ;
#78 = CC_DESIGN_APPROVAL ( #56, ( #185 ) ) ;
#79 = PERSON_AND_ORGANIZATION_ROLE ( 'creator' ) ;
#80 = FACE_OUTER_BOUND ( 'NONE', #8, .T. ) ;
#81 = COORDINATED_UNIVERSAL_TIME_OFFSET ( 1, 0, .AHEAD. ) ;
#82 = LOCAL_TIME ( 11, 35, 13.00000000000000000, #81 ) ;
#83 = DIRECTION ( 'NONE',  ( 3.491481338843133355E-15, -1.227517819005651059E-16, 1.000000000000000000 ) ) ;
#84 = DIRECTION ( 'NONE',  ( -4.285855558155653280E-31, -1.000000000000000000, -1.227517819005650812E-16 ) ) ;
#85 = FACE_OUTER_BOUND ( 'NONE', #163, .T. ) ;
#86 = CYLINDRICAL_SURFACE ( 'NONE', #134, 1.749999999999998002 ) ;
#87 = COORDINATED_UNIVERSAL_TIME_OFFSET ( 1, 0, .AHEAD. ) ;
#88 = DIRECTION ( 'NONE',  ( -3.491481338843133355E-15, 1.224646799147353207E-16, -1.000000000000000000 ) ) ;
#89 = APPLICATION_PROTOCOL_DEFINITION ( 'international standard', 'config_control_design', 1994, #191 ) ;
#90 = AXIS2_PLACEMENT_3D ( 'NONE', #118, #136, #206 ) ;
#91 = CALENDAR_DATE ( 2021, 1, 11 ) ;
#92 = PERSON_AND_ORGANIZATION ( #31, #138 ) ;
#93 = ORIENTED_EDGE ( 'NONE', *, *, #65, .T. ) ;
#94 = APPLICATION_CONTEXT ( 'configuration controlled 3d designs of mechanical parts and assemblies' ) ;
#95 = AXIS2_PLACEMENT_3D ( 'NONE', #69, #153, #171 ) ;
#96 = APPROVAL_ROLE ( '' ) ;
#97 = EDGE_LOOP ( 'NONE', ( #200 ) ) ;
#98 = EDGE_LOOP ( 'NONE', ( #21 ) ) ;
#99 = AXIS2_PLACEMENT_3D ( 'NONE', #15, #30, #175 ) ;
#100 = DIRECTION ( 'NONE',  ( 0.0000000000000000000, -1.000000000000000000, 0.0000000000000000000 ) ) ;
#101 = DIRECTION ( 'NONE',  ( 0.0000000000000000000, 1.000000000000000000, 0.0000000000000000000 ) ) ;
#102 = DIRECTION ( 'NONE',  ( 0.0000000000000000000, 1.000000000000000000, 0.0000000000000000000 ) ) ;
#103 = AXIS2_PLACEMENT_3D ( 'NONE', #73, #36, #106 ) ;
#104 = FACE_OUTER_BOUND ( 'NONE', #76, .T. ) ;
#105 = VERTEX_POINT ( 'NONE', #72 ) ;
#106 = DIRECTION ( 'NONE',  ( 1.000000000000000000, 0.0000000000000000000, 0.0000000000000000000 ) ) ;
#107 = EDGE_CURVE ( 'NONE', #193, #193, #6, .T. ) ;
#108 = LOCAL_TIME ( 11, 35, 13.00000000000000000, #182 ) ;
#109 = EDGE_LOOP ( 'NONE', ( #168 ) ) ;
#110 = APPROVAL_DATE_TIME ( #166, #4 ) ;
#111 = EDGE_LOOP ( 'NONE', ( #61 ) ) ;
#112 = PERSON_AND_ORGANIZATION ( #31, #138 ) ;
#113 = PERSON_AND_ORGANIZATION ( #31, #138 ) ;
#114 = EDGE_LOOP ( 'NONE', ( #195 ) ) ;
#115 = FACE_OUTER_BOUND ( 'NONE', #109, .T. ) ;
#116 = EDGE_CURVE ( 'NONE', #158, #158, #145, .T. ) ;
#117 = FACE_OUTER_BOUND ( 'NONE', #111, .T. ) ;
#118 = CARTESIAN_POINT ( 'NONE',  ( 2.444036937190193033E-14, 2.249639673992782580E-32, 6.999999999999999112 ) ) ;
#119 = DIRECTION ( 'NONE',  ( -3.491481338843133355E-15, 1.224646799147353207E-16, -1.000000000000000000 ) ) ;
#120 = CC_DESIGN_PERSON_AND_ORGANIZATION_ASSIGNMENT ( #126, #194, ( #77 ) ) ;
#121 = DIRECTION ( 'NONE',  ( 3.491481338843133355E-15, -1.224646799147353207E-16, 1.000000000000000000 ) ) ;
#122 = AXIS2_PLACEMENT_3D ( 'NONE', #10, #83, #84 ) ;
#123 = MANIFOLD_SOLID_BREP ( 'Corps-Déplacer/Copier1[2]', #223 ) ;
#124 = AXIS2_PLACEMENT_3D ( 'NONE', #66, #135, #205 ) ;
#125 = APPLICATION_PROTOCOL_DEFINITION ( 'international standard', 'config_control_design', 1994, #94 ) ;
#126 = PERSON_AND_ORGANIZATION ( #31, #138 ) ;
#127 = TOROIDAL_SURFACE ( 'NONE', #99, 9.749999999999998224, 8.000000000000000000 ) ;
#128 = ORIENTED_EDGE ( 'NONE', *, *, #107, .T. ) ;
#129 = FACE_OUTER_BOUND ( 'NONE', #147, .T. ) ;
#130 = AXIS2_PLACEMENT_3D ( 'NONE', #204, #49, #102 ) ;
#131 = APPROVAL_DATE_TIME ( #27, #56 ) ;
#132 = CARTESIAN_POINT ( 'NONE',  ( 1.990144363140586139E-13, -6.980486755139912911E-15, 57.00000000000000000 ) ) ;
#133 = FACE_OUTER_BOUND ( 'NONE', #114, .T. ) ;
#134 = AXIS2_PLACEMENT_3D ( 'NONE', #154, #150, #67 ) ;
#135 = DIRECTION ( 'NONE',  ( -3.491481338843133355E-15, 1.224646799147353207E-16, -1.000000000000000000 ) ) ;
#136 = DIRECTION ( 'NONE',  ( 3.491481338843133355E-15, -1.224646799147353207E-16, 1.000000000000000000 ) ) ;
#137 =( NAMED_UNIT ( * ) SI_UNIT ( $, .STERADIAN. ) SOLID_ANGLE_UNIT ( ) );
#138 = ORGANIZATION ( 'UNSPECIFIED', 'UNSPECIFIED', '' ) ;
#139 = CARTESIAN_POINT ( 'NONE',  ( 3.943240970200190237E-14, 2.999999999999999112, 11.29389100932941581 ) ) ;
#140 = DIRECTION ( 'NONE',  ( 4.275831445896958607E-31, 1.000000000000000000, 1.224646799147353207E-16 ) ) ;
#141 = UNCERTAINTY_MEASURE_WITH_UNIT (LENGTH_MEASURE( 1.000000000000000082E-05 ), #210, 'distance_accuracy_value', 'NONE');
#142 = ADVANCED_FACE ( 'NONE', ( #187, #29 ), #165, .T. ) ;
#143 = PERSON_AND_ORGANIZATION_ROLE ( 'classification_officer' ) ;
#144 = ORIENTED_EDGE ( 'NONE', *, *, #156, .T. ) ;
#145 = CIRCLE ( 'NONE', #130, 2.999999999999999556 ) ;
#146 = DATE_TIME_ROLE ( 'classification_date' ) ;
#147 = EDGE_LOOP ( 'NONE', ( #144 ) ) ;
#148 = CIRCLE ( 'NONE', #17, 3.000000000000002665 ) ;
#149 = APPROVAL ( #16, 'UNSPECIFIED' ) ;
#150 = DIRECTION ( 'NONE',  ( 3.491481338843133355E-15, -1.227517819005651059E-16, 1.000000000000000000 ) ) ;
#151 = CYLINDRICAL_SURFACE ( 'NONE', #124, 2.999999999999999556 ) ;
#152 = CIRCLE ( 'NONE', #122, 1.749999999999998890 ) ;
#153 = DIRECTION ( 'NONE',  ( 3.491481338843133355E-15, -1.227517819005651059E-16, 1.000000000000000000 ) ) ;
#154 = CARTESIAN_POINT ( 'NONE',  ( -6.413731847436034514E-31, 0.0000000000000000000, -1.836965810494968570E-16 ) ) ;
#155 = CALENDAR_DATE ( 2021, 1, 11 ) ;
#156 = EDGE_CURVE ( 'NONE', #70, #70, #148, .T. ) ;
#157 = ADVANCED_BREP_SHAPE_REPRESENTATION ( '41928', ( #199, #123, #103 ), #52 ) ;
#158 = VERTEX_POINT ( 'NONE', #139 ) ;
#159 = VERTEX_POINT ( 'NONE', #192 ) ;
#160 = PERSON_AND_ORGANIZATION ( #31, #138 ) ;
#161 = DATE_AND_TIME ( #64, #82 ) ;
#162 = EDGE_LOOP ( 'NONE', ( #197 ) ) ;
#163 = EDGE_LOOP ( 'NONE', ( #93 ) ) ;
#164 = ADVANCED_FACE ( 'NONE', ( #85 ), #68, .T. ) ;
#165 = CONICAL_SURFACE ( 'NONE', #24, 2.600000000000002309, 0.7853981633974516097 ) ;
#166 = DATE_AND_TIME ( #215, #179 ) ;
#167 = CC_DESIGN_DATE_AND_TIME_ASSIGNMENT ( #161, #146, ( #185 ) ) ;
#168 = ORIENTED_EDGE ( 'NONE', *, *, #116, .T. ) ;
#169 = APPROVAL_PERSON_ORGANIZATION ( #112, #4, #96 ) ;
#170 = LOCAL_TIME ( 11, 35, 13.00000000000000000, #87 ) ;
#171 = DIRECTION ( 'NONE',  ( 0.0000000000000000000, -1.000000000000000000, 0.0000000000000000000 ) ) ;
#172 = FACE_OUTER_BOUND ( 'NONE', #98, .T. ) ;
#173 = CLOSED_SHELL ( 'NONE', ( #11, #142, #221, #20, #183 ) ) ;
#174 = DIRECTION ( 'NONE',  ( 0.0000000000000000000, 1.000000000000000000, 0.0000000000000000000 ) ) ;
#175 = DIRECTION ( 'NONE',  ( -2.639570406268317994E-31, -1.000000000000000000, -1.227517819005651059E-16 ) ) ;
#176 = CC_DESIGN_PERSON_AND_ORGANIZATION_ASSIGNMENT ( #177, #19, ( #22 ) ) ;
#177 = PERSON_AND_ORGANIZATION ( #31, #138 ) ;
#178 = MECHANICAL_CONTEXT ( 'NONE', #94, 'mechanical' ) ;
#179 = LOCAL_TIME ( 11, 35, 13.00000000000000000, #45 ) ;
#180 = APPROVAL_STATUS ( 'not_yet_approved' ) ;
#181 = CIRCLE ( 'NONE', #188, 2.600000000000002309 ) ;
#182 = COORDINATED_UNIVERSAL_TIME_OFFSET ( 1, 0, .AHEAD. ) ;
#183 = ADVANCED_FACE ( 'NONE', ( #172 ), #51, .F. ) ;
#184 = APPROVAL_STATUS ( 'not_yet_approved' ) ;
#185 = SECURITY_CLASSIFICATION ( '', '', #7 ) ;
#186 = DIRECTION ( 'NONE',  ( 0.0000000000000000000, 1.000000000000000000, 0.0000000000000000000 ) ) ;
#187 = FACE_OUTER_BOUND ( 'NONE', #62, .T. ) ;
#188 = AXIS2_PLACEMENT_3D ( 'NONE', #13, #32, #186 ) ;
#189 = DIRECTION ( 'NONE',  ( -4.275831445896958607E-31, -1.000000000000000000, -1.224646799147353207E-16 ) ) ;
#190 = CC_DESIGN_DATE_AND_TIME_ASSIGNMENT ( #75, #43, ( #77 ) ) ;
#191 = APPLICATION_CONTEXT ( 'configuration controlled 3d designs of mechanical parts and assemblies' ) ;
#192 = CARTESIAN_POINT ( 'NONE',  ( 1.990144363140586139E-13, 2.599999999999995648, 57.00000000000000000 ) ) ;
#193 = VERTEX_POINT ( 'NONE', #18 ) ;
#194 = PERSON_AND_ORGANIZATION_ROLE ( 'creator' ) ;
#195 = ORIENTED_EDGE ( 'NONE', *, *, #50, .F. ) ;
#196 = EDGE_CURVE ( 'NONE', #1, #1, #152, .T. ) ;
#197 = ORIENTED_EDGE ( 'NONE', *, *, #196, .T. ) ;
#198 = PLANE ( 'NONE',  #216 ) ;
#199 = MANIFOLD_SOLID_BREP ( 'Corps-Déplacer/Copier1[1]', #173 ) ;
#200 = ORIENTED_EDGE ( 'NONE', *, *, #50, .T. ) ;
#201 = SHAPE_DEFINITION_REPRESENTATION ( #40, #157 ) ;
#202 = PLANE ( 'NONE',  #48 ) ;
#203 = ADVANCED_FACE ( 'NONE', ( #34, #104 ), #86, .T. ) ;
#204 = CARTESIAN_POINT ( 'NONE',  ( 3.943240970200190237E-14, -5.270827726820021142E-16, 11.29389100932941581 ) ) ;
#205 = DIRECTION ( 'NONE',  ( 4.275831445896959482E-31, 1.000000000000000000, 1.224646799147353207E-16 ) ) ;
#206 = DIRECTION ( 'NONE',  ( -4.275831445896958607E-31, -1.000000000000000000, -1.224646799147353207E-16 ) ) ;
#207 = CC_DESIGN_PERSON_AND_ORGANIZATION_ASSIGNMENT ( #60, #143, ( #185 ) ) ;
#208 = CC_DESIGN_APPROVAL ( #149, ( #77 ) ) ;
#209 = CARTESIAN_POINT ( 'NONE',  ( 1.976178437785213605E-13, 2.999999999999995559, 56.60000000000000142 ) ) ;
#210 =( LENGTH_UNIT ( ) NAMED_UNIT ( * ) SI_UNIT ( .MILLI., .METRE. ) );
#211 = CIRCLE ( 'NONE', #74, 1.749999999999997113 ) ;
#212 = DATE_AND_TIME ( #155, #170 ) ;
#213 = PERSON_AND_ORGANIZATION_ROLE ( 'design_supplier' ) ;
#214 = CARTESIAN_POINT ( 'NONE',  ( -3.206816838010677856E-31, 1.124799933034399755E-32, -9.184688465421452921E-17 ) ) ;
#215 = CALENDAR_DATE ( 2021, 1, 11 ) ;
#216 = AXIS2_PLACEMENT_3D ( 'NONE', #214, #44, #63 ) ;
#217 = FACE_OUTER_BOUND ( 'NONE', #23, .T. ) ;
#218 = CC_DESIGN_PERSON_AND_ORGANIZATION_ASSIGNMENT ( #92, #213, ( #38 ) ) ;
#219 = CARTESIAN_POINT ( 'NONE',  ( 1.976178437785213605E-13, -6.931500883174019483E-15, 56.60000000000000142 ) ) ;
#220 = AXIS2_PLACEMENT_3D ( 'NONE', #12, #121, #189 ) ;
#221 = ADVANCED_FACE ( 'NONE', ( #133 ), #202, .F. ) ;
#222 = DIRECTION ( 'NONE',  ( 3.491481338843133355E-15, -1.227517819005651059E-16, 1.000000000000000000 ) ) ;
#223 = CLOSED_SHELL ( 'NONE', ( #164, #203, #9 ) ) ;
ENDSEC;
END-ISO-10303-21;
