ISO-10303-21;
HEADER;
FILE_DESCRIPTION (( 'STEP AP203' ),
    '1' );
FILE_NAME ('41927.step',
    '2021-10-15T13:34:50',
    ( '' ),
    ( '' ),
    'SwSTEP 2.0',
    'SolidWorks 2019',
    '' );
FILE_SCHEMA (( 'CONFIG_CONTROL_DESIGN' ));
ENDSEC;

DATA;
#1 = PERSON_AND_ORGANIZATION ( #129, #33 ) ;
#2 = PERSON_AND_ORGANIZATION_ROLE ( 'creator' ) ;
#3 = CONICAL_SURFACE ( 'NONE', #92, 4.249999999999992006, 1.221730476396026388 ) ;
#4 = LOCAL_TIME ( 15, 34, 50.00000000000000000, #29 ) ;
#5 = DIRECTION ( 'NONE',  ( 3.491481338843133355E-15, -1.224646799147353207E-16, 1.000000000000000000 ) ) ;
#6 = FACE_OUTER_BOUND ( 'NONE', #88, .T. ) ;
#7 = CARTESIAN_POINT ( 'NONE',  ( 1.291848095371959215E-13, -4.531193156845206793E-15, 37.00000000000000000 ) ) ;
#8 = CYLINDRICAL_SURFACE ( 'NONE', #82, 4.249999999999998224 ) ;
#9 = ADVANCED_BREP_SHAPE_REPRESENTATION ( '41927', ( #115, #185, #180 ), #85 ) ;
#10 = AXIS2_PLACEMENT_3D ( 'NONE', #196, #163, #32 ) ;
#11 = APPROVAL_PERSON_ORGANIZATION ( #174, #112, #141 ) ;
#12 = PERSON_AND_ORGANIZATION_ROLE ( 'design_supplier' ) ;
#13 = ORIENTED_EDGE ( 'NONE', *, *, #177, .T. ) ;
#14 = UNCERTAINTY_MEASURE_WITH_UNIT (LENGTH_MEASURE( 1.000000000000000082E-05 ), #67, 'distance_accuracy_value', 'NONE');
#15 = PERSON_AND_ORGANIZATION ( #129, #33 ) ;
#16 = CALENDAR_DATE ( 2021, 15, 10 ) ;
#17 = DIRECTION ( 'NONE',  ( -3.491481338843133355E-15, 1.224646799147353207E-16, -1.000000000000000000 ) ) ;
#18 = AXIS2_PLACEMENT_3D ( 'NONE', #7, #79, #117 ) ;
#19 = VERTEX_POINT ( 'NONE', #23 ) ;
#20 = CARTESIAN_POINT ( 'NONE',  ( 1.291848095371959215E-13, 4.249999999999992006, 37.00000000000000000 ) ) ;
#21 = CARTESIAN_POINT ( 'NONE',  ( 1.291848095371959215E-13, -4.531193156845206793E-15, 37.00000000000000000 ) ) ;
#22 = AXIS2_PLACEMENT_3D ( 'NONE', #164, #94, #130 ) ;
#23 = CARTESIAN_POINT ( 'NONE',  ( 2.730338406975330410E-13, 4.249999999999992006, 78.19999999999998863 ) ) ;
#24 = DIRECTION ( 'NONE',  ( 3.491481338843133355E-15, -1.224646799147353207E-16, 1.000000000000000000 ) ) ;
#25 = CYLINDRICAL_SURFACE ( 'NONE', #176, 4.249999999999993783 ) ;
#26 = ORIENTED_EDGE ( 'NONE', *, *, #106, .T. ) ;
#27 = MECHANICAL_CONTEXT ( 'NONE', #183, 'mechanical' ) ;
#28 = CARTESIAN_POINT ( 'NONE',  ( 1.291848095371959215E-13, 3.186989538156437837E-32, 37.00000000000000000 ) ) ;
#29 = COORDINATED_UNIVERSAL_TIME_OFFSET ( 1, 0, .AHEAD. ) ;
#30 = APPROVAL ( #158, 'UNSPECIFIED' ) ;
#31 = FACE_BOUND ( 'NONE', #68, .T. ) ;
#32 = DIRECTION ( 'NONE',  ( 0.0000000000000000000, 1.000000000000000000, 0.0000000000000000000 ) ) ;
#33 = ORGANIZATION ( 'UNSPECIFIED', 'UNSPECIFIED', '' ) ;
#34 = DIRECTION ( 'NONE',  ( 3.625279895317156667E-31, 1.000000000000000000, 1.020425574104006095E-16 ) ) ;
#35 = DIRECTION ( 'NONE',  ( -3.491481338843133355E-15, 1.224646799147353207E-16, -1.000000000000000000 ) ) ;
#36 =( NAMED_UNIT ( * ) SI_UNIT ( $, .STERADIAN. ) SOLID_ANGLE_UNIT ( ) );
#37 = DIRECTION ( 'NONE',  ( 1.000000000000000000, 0.0000000000000000000, 0.0000000000000000000 ) ) ;
#38 = PERSON_AND_ORGANIZATION_ROLE ( 'classification_officer' ) ;
#39 = CIRCLE ( 'NONE', #60, 3.450000000000001510 ) ;
#40 = DATE_AND_TIME ( #201, #4 ) ;
#41 = DIRECTION ( 'NONE',  ( -4.275831445896958607E-31, -1.000000000000000000, -1.224646799147353207E-16 ) ) ;
#42 = COORDINATED_UNIVERSAL_TIME_OFFSET ( 1, 0, .AHEAD. ) ;
#43 = DESIGN_CONTEXT ( 'detailed design', #148, 'design' ) ;
#44 = LOCAL_TIME ( 15, 34, 50.00000000000000000, #91 ) ;
#45 = CLOSED_SHELL ( 'NONE', ( #61, #101, #140, #131 ) ) ;
#46 = DIRECTION ( 'NONE',  ( 4.275831445896958607E-31, 1.000000000000000000, 1.224646799147353454E-16 ) ) ;
#47 = ADVANCED_FACE ( 'NONE', ( #56, #123 ), #25, .T. ) ;
#48 = CARTESIAN_POINT ( 'NONE',  ( 5.400879943547999270E-15, -1.894373675110843422E-16, 1.546873495631377438 ) ) ;
#49 = CARTESIAN_POINT ( 'NONE',  ( 2.758270257686075477E-13, 2.587085625091691510E-32, 79.00000000000000000 ) ) ;
#50 = PLANE ( 'NONE',  #128 ) ;
#51 =( NAMED_UNIT ( * ) PLANE_ANGLE_UNIT ( ) SI_UNIT ( $, .RADIAN. ) );
#52 = ORIENTED_EDGE ( 'NONE', *, *, #106, .F. ) ;
#53 = CALENDAR_DATE ( 2021, 15, 10 ) ;
#54 = PRODUCT_DEFINITION ( 'UNKNOWN', '', #136, #43 ) ;
#55 = ORIENTED_EDGE ( 'NONE', *, *, #160, .F. ) ;
#56 = FACE_OUTER_BOUND ( 'NONE', #118, .T. ) ;
#57 = APPROVAL_STATUS ( 'not_yet_approved' ) ;
#58 = DATE_AND_TIME ( #87, #198 ) ;
#59 = CARTESIAN_POINT ( 'NONE',  ( 5.400879943547999270E-15, -1.894373675110843422E-16, 1.546873495631377438 ) ) ;
#60 = AXIS2_PLACEMENT_3D ( 'NONE', #113, #81, #166 ) ;
#61 = ADVANCED_FACE ( 'NONE', ( #168 ), #154, .F. ) ;
#62 = CC_DESIGN_APPROVAL ( #112, ( #136 ) ) ;
#63 = DIRECTION ( 'NONE',  ( -3.491481338843133355E-15, 1.224646799147353207E-16, -1.000000000000000000 ) ) ;
#64 = FACE_OUTER_BOUND ( 'NONE', #167, .T. ) ;
#65 = CARTESIAN_POINT ( 'NONE',  ( 1.291848095371959215E-13, 4.249999999999992006, 37.00000000000000000 ) ) ;
#66 = CC_DESIGN_PERSON_AND_ORGANIZATION_ASSIGNMENT ( #137, #124, ( #172 ) ) ;
#67 =( LENGTH_UNIT ( ) NAMED_UNIT ( * ) SI_UNIT ( .MILLI., .METRE. ) );
#68 = EDGE_LOOP ( 'NONE', ( #26 ) ) ;
#69 = ADVANCED_FACE ( 'NONE', ( #173 ), #3, .T. ) ;
#70 = LOCAL_TIME ( 15, 34, 50.00000000000000000, #42 ) ;
#71 = EDGE_LOOP ( 'NONE', ( #13 ) ) ;
#72 = PRODUCT_RELATED_PRODUCT_CATEGORY ( 'detail', '', ( #172 ) ) ;
#73 = APPROVAL_STATUS ( 'not_yet_approved' ) ;
#74 = APPROVAL_DATE_TIME ( #153, #30 ) ;
#75 = ORIENTED_EDGE ( 'NONE', *, *, #199, .F. ) ;
#76 = DIRECTION ( 'NONE',  ( 0.0000000000000000000, 0.0000000000000000000, 1.000000000000000000 ) ) ;
#77 = CC_DESIGN_PERSON_AND_ORGANIZATION_ASSIGNMENT ( #186, #171, ( #136 ) ) ;
#78 = CALENDAR_DATE ( 2021, 15, 10 ) ;
#79 = DIRECTION ( 'NONE',  ( -3.491481338843133355E-15, 1.224646799147353207E-16, -1.000000000000000000 ) ) ;
#80 = CARTESIAN_POINT ( 'NONE',  ( 2.758270257686075477E-13, 3.449999999999992184, 79.00000000000000000 ) ) ;
#81 = DIRECTION ( 'NONE',  ( -3.491481338843133355E-15, 1.224646799147353207E-16, -1.000000000000000000 ) ) ;
#82 = AXIS2_PLACEMENT_3D ( 'NONE', #194, #35, #46 ) ;
#83 = SECURITY_CLASSIFICATION ( '', '', #157 ) ;
#84 = CC_DESIGN_DATE_AND_TIME_ASSIGNMENT ( #103, #144, ( #83 ) ) ;
#85 =( GEOMETRIC_REPRESENTATION_CONTEXT ( 3 ) GLOBAL_UNCERTAINTY_ASSIGNED_CONTEXT ( ( #14 ) ) GLOBAL_UNIT_ASSIGNED_CONTEXT ( ( #67, #51, #36 ) ) REPRESENTATION_CONTEXT ( 'NONE', 'WORKASPACE' ) );
#86 = CARTESIAN_POINT ( 'NONE',  ( 0.0000000000000000000, 0.0000000000000000000, 0.0000000000000000000 ) ) ;
#87 = CALENDAR_DATE ( 2021, 15, 10 ) ;
#88 = EDGE_LOOP ( 'NONE', ( #138 ) ) ;
#89 = PERSON_AND_ORGANIZATION ( #129, #33 ) ;
#90 = EDGE_CURVE ( 'NONE', #19, #19, #95, .T. ) ;
#91 = COORDINATED_UNIVERSAL_TIME_OFFSET ( 1, 0, .AHEAD. ) ;
#92 = AXIS2_PLACEMENT_3D ( 'NONE', #59, #127, #181 ) ;
#93 = CC_DESIGN_SECURITY_CLASSIFICATION ( #83, ( #136 ) ) ;
#94 = DIRECTION ( 'NONE',  ( -3.491481338843133355E-15, 1.224646799147353207E-16, -1.000000000000000000 ) ) ;
#95 = CIRCLE ( 'NONE', #10, 4.250000000000000888 ) ;
#96 = CC_DESIGN_APPROVAL ( #30, ( #54 ) ) ;
#97 = CARTESIAN_POINT ( 'NONE',  ( 5.400879943548000847E-15, 4.249999999999992006, 1.546873495631377882 ) ) ;
#98 = VERTEX_POINT ( 'NONE', #65 ) ;
#99 = ADVANCED_FACE ( 'NONE', ( #161 ), #50, .T. ) ;
#100 = DIRECTION ( 'NONE',  ( -3.491481338843133355E-15, 1.224646799147353207E-16, -1.000000000000000000 ) ) ;
#101 = ADVANCED_FACE ( 'NONE', ( #197, #6 ), #8, .T. ) ;
#102 = ORIENTED_EDGE ( 'NONE', *, *, #160, .T. ) ;
#103 = DATE_AND_TIME ( #16, #44 ) ;
#104 = APPROVAL_ROLE ( '' ) ;
#105 = EDGE_LOOP ( 'NONE', ( #170 ) ) ;
#106 = EDGE_CURVE ( 'NONE', #114, #114, #39, .T. ) ;
#107 = APPROVAL_DATE_TIME ( #40, #112 ) ;
#108 = APPLICATION_PROTOCOL_DEFINITION ( 'international standard', 'config_control_design', 1994, #183 ) ;
#109 = COORDINATED_UNIVERSAL_TIME_OFFSET ( 1, 0, .AHEAD. ) ;
#110 = AXIS2_PLACEMENT_3D ( 'NONE', #48, #100, #34 ) ;
#111 = CONICAL_SURFACE ( 'NONE', #22, 3.450000000000001510, 0.7853981633974423948 ) ;
#112 = APPROVAL ( #57, 'UNSPECIFIED' ) ;
#113 = CARTESIAN_POINT ( 'NONE',  ( 2.758270257686075477E-13, -9.674709713264090904E-15, 79.00000000000000000 ) ) ;
#114 = VERTEX_POINT ( 'NONE', #80 ) ;
#115 = MANIFOLD_SOLID_BREP ( 'Corps-Déplacer/Copier1[1]', #45 ) ;
#116 = FACE_OUTER_BOUND ( 'NONE', #188, .T. ) ;
#117 = DIRECTION ( 'NONE',  ( 0.0000000000000000000, 1.000000000000000000, 0.0000000000000000000 ) ) ;
#118 = EDGE_LOOP ( 'NONE', ( #75 ) ) ;
#119 = PERSON_AND_ORGANIZATION ( #129, #33 ) ;
#120 = AXIS2_PLACEMENT_3D ( 'NONE', #49, #63, #182 ) ;
#121 = APPROVAL_PERSON_ORGANIZATION ( #119, #126, #104 ) ;
#122 = COORDINATED_UNIVERSAL_TIME_OFFSET ( 1, 0, .AHEAD. ) ;
#123 = FACE_OUTER_BOUND ( 'NONE', #169, .T. ) ;
#124 = PERSON_AND_ORGANIZATION_ROLE ( 'design_owner' ) ;
#125 = DATE_AND_TIME ( #78, #145 ) ;
#126 = APPROVAL ( #73, 'UNSPECIFIED' ) ;
#127 = DIRECTION ( 'NONE',  ( 3.491481338843133355E-15, -1.224646799147353207E-16, 1.000000000000000000 ) ) ;
#128 = AXIS2_PLACEMENT_3D ( 'NONE', #146, #5, #132 ) ;
#129 = PERSON ( 'UNSPECIFIED', 'UNSPECIFIED', 'UNSPECIFIED', ('UNSPECIFIED'), ('UNSPECIFIED'), ('UNSPECIFIED') ) ;
#130 = DIRECTION ( 'NONE',  ( 0.0000000000000000000, 1.000000000000000000, 0.0000000000000000000 ) ) ;
#131 = ADVANCED_FACE ( 'NONE', ( #64 ), #178, .F. ) ;
#132 = DIRECTION ( 'NONE',  ( -4.275831445896958607E-31, -1.000000000000000000, -1.224646799147353207E-16 ) ) ;
#133 = CLOSED_SHELL ( 'NONE', ( #69, #47, #99 ) ) ;
#134 = VERTEX_POINT ( 'NONE', #97 ) ;
#135 = EDGE_LOOP ( 'NONE', ( #55 ) ) ;
#136 = PRODUCT_DEFINITION_FORMATION_WITH_SPECIFIED_SOURCE ( 'ANY', '', #172, .NOT_KNOWN. ) ;
#137 = PERSON_AND_ORGANIZATION ( #129, #33 ) ;
#138 = ORIENTED_EDGE ( 'NONE', *, *, #90, .T. ) ;
#139 = SHAPE_DEFINITION_REPRESENTATION ( #152, #9 ) ;
#140 = ADVANCED_FACE ( 'NONE', ( #116, #31 ), #111, .T. ) ;
#141 = APPROVAL_ROLE ( '' ) ;
#142 = ORIENTED_EDGE ( 'NONE', *, *, #90, .F. ) ;
#143 = PERSON_AND_ORGANIZATION ( #129, #33 ) ;
#144 = DATE_TIME_ROLE ( 'classification_date' ) ;
#145 = LOCAL_TIME ( 15, 34, 50.00000000000000000, #109 ) ;
#146 = CARTESIAN_POINT ( 'NONE',  ( 1.291848095371959215E-13, 3.186989538156437837E-32, 37.00000000000000000 ) ) ;
#147 = DIRECTION ( 'NONE',  ( 0.0000000000000000000, 1.000000000000000000, 0.0000000000000000000 ) ) ;
#148 = APPLICATION_CONTEXT ( 'configuration controlled 3d designs of mechanical parts and assemblies' ) ;
#149 = CC_DESIGN_DATE_AND_TIME_ASSIGNMENT ( #58, #155, ( #54 ) ) ;
#150 = DIRECTION ( 'NONE',  ( 4.275831445896957731E-31, 1.000000000000000000, 1.224646799147353207E-16 ) ) ;
#151 = CIRCLE ( 'NONE', #110, 4.249999999999992006 ) ;
#152 = PRODUCT_DEFINITION_SHAPE ( 'NONE', 'NONE',  #54 ) ;
#153 = DATE_AND_TIME ( #53, #70 ) ;
#154 = PLANE ( 'NONE',  #191 ) ;
#155 = DATE_TIME_ROLE ( 'creation_date' ) ;
#156 = ORIENTED_EDGE ( 'NONE', *, *, #177, .F. ) ;
#157 = SECURITY_CLASSIFICATION_LEVEL ( 'unclassified' ) ;
#158 = APPROVAL_STATUS ( 'not_yet_approved' ) ;
#159 = CC_DESIGN_PERSON_AND_ORGANIZATION_ASSIGNMENT ( #15, #38, ( #83 ) ) ;
#160 = EDGE_CURVE ( 'NONE', #179, #179, #202, .T. ) ;
#161 = FACE_OUTER_BOUND ( 'NONE', #135, .T. ) ;
#162 = CC_DESIGN_APPROVAL ( #126, ( #83 ) ) ;
#163 = DIRECTION ( 'NONE',  ( -3.491481338843133355E-15, 1.224646799147353207E-16, -1.000000000000000000 ) ) ;
#164 = CARTESIAN_POINT ( 'NONE',  ( 2.758270257686075477E-13, -9.674709713264090904E-15, 79.00000000000000000 ) ) ;
#165 = CIRCLE ( 'NONE', #18, 4.249999999999995559 ) ;
#166 = DIRECTION ( 'NONE',  ( 0.0000000000000000000, 1.000000000000000000, 0.0000000000000000000 ) ) ;
#167 = EDGE_LOOP ( 'NONE', ( #52 ) ) ;
#168 = FACE_OUTER_BOUND ( 'NONE', #71, .T. ) ;
#169 = EDGE_LOOP ( 'NONE', ( #102 ) ) ;
#170 = ORIENTED_EDGE ( 'NONE', *, *, #199, .T. ) ;
#171 = PERSON_AND_ORGANIZATION_ROLE ( 'creator' ) ;
#172 = PRODUCT ( '41927', '41927', '', ( #27 ) ) ;
#173 = FACE_OUTER_BOUND ( 'NONE', #105, .T. ) ;
#174 = PERSON_AND_ORGANIZATION ( #129, #33 ) ;
#175 = CARTESIAN_POINT ( 'NONE',  ( 0.0000000000000000000, 0.0000000000000000000, 0.0000000000000000000 ) ) ;
#176 = AXIS2_PLACEMENT_3D ( 'NONE', #86, #184, #150 ) ;
#177 = EDGE_CURVE ( 'NONE', #98, #98, #165, .T. ) ;
#178 = PLANE ( 'NONE',  #120 ) ;
#179 = VERTEX_POINT ( 'NONE', #20 ) ;
#180 = AXIS2_PLACEMENT_3D ( 'NONE', #175, #76, #37 ) ;
#181 = DIRECTION ( 'NONE',  ( -3.625279895317156667E-31, -1.000000000000000000, -1.020425574104006095E-16 ) ) ;
#182 = DIRECTION ( 'NONE',  ( 4.275831445896958607E-31, 1.000000000000000000, 1.224646799147353207E-16 ) ) ;
#183 = APPLICATION_CONTEXT ( 'configuration controlled 3d designs of mechanical parts and assemblies' ) ;
#184 = DIRECTION ( 'NONE',  ( -3.491481338843133355E-15, 1.224646799147353207E-16, -1.000000000000000000 ) ) ;
#185 = MANIFOLD_SOLID_BREP ( 'Corps-Déplacer/Copier1[2]', #133 ) ;
#186 = PERSON_AND_ORGANIZATION ( #129, #33 ) ;
#187 = EDGE_LOOP ( 'NONE', ( #156 ) ) ;
#188 = EDGE_LOOP ( 'NONE', ( #142 ) ) ;
#189 = APPLICATION_PROTOCOL_DEFINITION ( 'international standard', 'config_control_design', 1994, #148 ) ;
#190 = APPROVAL_DATE_TIME ( #125, #126 ) ;
#191 = AXIS2_PLACEMENT_3D ( 'NONE', #28, #24, #41 ) ;
#192 = APPROVAL_PERSON_ORGANIZATION ( #143, #30, #200 ) ;
#193 = AXIS2_PLACEMENT_3D ( 'NONE', #21, #17, #147 ) ;
#194 = CARTESIAN_POINT ( 'NONE',  ( 0.0000000000000000000, 0.0000000000000000000, 0.0000000000000000000 ) ) ;
#195 = CC_DESIGN_PERSON_AND_ORGANIZATION_ASSIGNMENT ( #89, #12, ( #136 ) ) ;
#196 = CARTESIAN_POINT ( 'NONE',  ( 2.730338406975330410E-13, -9.576737969332300892E-15, 78.19999999999998863 ) ) ;
#197 = FACE_OUTER_BOUND ( 'NONE', #187, .T. ) ;
#198 = LOCAL_TIME ( 15, 34, 50.00000000000000000, #122 ) ;
#199 = EDGE_CURVE ( 'NONE', #134, #134, #151, .T. ) ;
#200 = APPROVAL_ROLE ( '' ) ;
#201 = CALENDAR_DATE ( 2021, 15, 10 ) ;
#202 = CIRCLE ( 'NONE', #193, 4.249999999999995559 ) ;
#203 = CC_DESIGN_PERSON_AND_ORGANIZATION_ASSIGNMENT ( #1, #2, ( #54 ) ) ;
ENDSEC;
END-ISO-10303-21;
