ISO-10303-21;
HEADER;
FILE_DESCRIPTION (( 'STEP AP203' ),
    '1' );
FILE_NAME ('41914.step',
    '2021-09-03T07:22:18',
    ( '' ),
    ( '' ),
    'SwSTEP 2.0',
    'SolidWorks 2019',
    '' );
FILE_SCHEMA (( 'CONFIG_CONTROL_DESIGN' ));
ENDSEC;

DATA;
#1 = ORIENTED_EDGE ( 'NONE', *, *, #22, .T. ) ;
#2 = MECHANICAL_CONTEXT ( 'NONE', #157, 'mechanical' ) ;
#3 = ORIENTED_EDGE ( 'NONE', *, *, #137, .F. ) ;
#4 = DIRECTION ( 'NONE',  ( -3.491481338843133355E-15, 1.224646799147353207E-16, -1.000000000000000000 ) ) ;
#5 = CLOSED_SHELL ( 'NONE', ( #258, #210, #50, #295, #32 ) ) ;
#6 = VERTEX_POINT ( 'NONE', #307 ) ;
#7 = CIRCLE ( 'NONE', #234, 2.449999999999997513 ) ;
#8 = PRODUCT_DEFINITION ( 'UNKNOWN', '', #168, #200 ) ;
#9 = ORIENTED_EDGE ( 'NONE', *, *, #179, .T. ) ;
#10 = DIRECTION ( 'NONE',  ( 0.0000000000000000000, 1.000000000000000000, 0.0000000000000000000 ) ) ;
#11 = CARTESIAN_POINT ( 'NONE',  ( 6.982962677686266711E-14, 2.449999999999994849, 20.00000000000000000 ) ) ;
#12 = CARTESIAN_POINT ( 'NONE',  ( 5.139839414522173166E-15, -1.802812982873223364E-16, 1.472108516617535834 ) ) ;
#13 = CC_DESIGN_PERSON_AND_ORGANIZATION_ASSIGNMENT ( #257, #24, ( #8 ) ) ;
#14 = VECTOR ( 'NONE', #106, 1000.000000000000000 ) ;
#15 = CC_DESIGN_APPROVAL ( #132, ( #168 ) ) ;
#16 = CYLINDRICAL_SURFACE ( 'NONE', #110, 2.449999999999996181 ) ;
#17 = ORIENTED_EDGE ( 'NONE', *, *, #321, .F. ) ;
#18 = ORIENTED_EDGE ( 'NONE', *, *, #268, .F. ) ;
#19 = APPROVAL_PERSON_ORGANIZATION ( #122, #132, #204 ) ;
#20 = ORIENTED_EDGE ( 'NONE', *, *, #137, .T. ) ;
#21 = FACE_OUTER_BOUND ( 'NONE', #308, .T. ) ;
#22 = EDGE_CURVE ( 'NONE', #6, #131, #244, .T. ) ;
#23 = DIRECTION ( 'NONE',  ( 4.275831445896958607E-31, 1.000000000000000000, 1.224646799147353207E-16 ) ) ;
#24 = PERSON_AND_ORGANIZATION_ROLE ( 'creator' ) ;
#25 = AXIS2_PLACEMENT_3D ( 'NONE', #60, #114, #163 ) ;
#26 = CARTESIAN_POINT ( 'NONE',  ( 2.164718430082742680E-13, -7.592810154713590230E-15, 62.00000000000000000 ) ) ;
#27 = CYLINDRICAL_SURFACE ( 'NONE', #198, 2.449999999999999734 ) ;
#28 = LOCAL_TIME ( 9, 22, 18.00000000000000000, #150 ) ;
#29 = CC_DESIGN_APPROVAL ( #277, ( #328 ) ) ;
#30 = CARTESIAN_POINT ( 'NONE',  ( 2.147261023388527077E-13, -7.531577814756222656E-15, 61.50000000000000000 ) ) ;
#31 = PRODUCT_DEFINITION_SHAPE ( 'NONE', 'NONE',  #8 ) ;
#32 = ADVANCED_FACE ( 'NONE', ( #158 ), #34, .T. ) ;
#33 = APPLICATION_PROTOCOL_DEFINITION ( 'international standard', 'config_control_design', 1994, #157 ) ;
#34 = PLANE ( 'NONE',  #289 ) ;
#35 = VERTEX_POINT ( 'NONE', #11 ) ;
#36 = DIRECTION ( 'NONE',  ( -3.491481338843133355E-15, 1.224646799147353207E-16, -1.000000000000000000 ) ) ;
#37 = EDGE_LOOP ( 'NONE', ( #283, #193, #83, #49 ) ) ;
#38 = EDGE_CURVE ( 'NONE', #211, #127, #130, .T. ) ;
#39 = APPROVAL_ROLE ( '' ) ;
#40 = CIRCLE ( 'NONE', #76, 2.449999999999994849 ) ;
#41 = PERSON_AND_ORGANIZATION_ROLE ( 'classification_officer' ) ;
#42 = CARTESIAN_POINT ( 'NONE',  ( 5.439877880313275541E-15, 2.449999999999994849, 1.472108516617536056 ) ) ;
#43 = APPLICATION_PROTOCOL_DEFINITION ( 'international standard', 'config_control_design', 1994, #109 ) ;
#44 = ORIENTED_EDGE ( 'NONE', *, *, #238, .T. ) ;
#45 = DIRECTION ( 'NONE',  ( -3.491481338843133355E-15, 1.224646799147353207E-16, -1.000000000000000000 ) ) ;
#46 = CARTESIAN_POINT ( 'NONE',  ( 3.000384657911005016E-16, -2.449999999999999734, -3.000384657911025724E-16 ) ) ;
#47 = AXIS2_PLACEMENT_3D ( 'NONE', #291, #139, #249 ) ;
#48 = LOCAL_TIME ( 9, 22, 18.00000000000000000, #188 ) ;
#49 = ORIENTED_EDGE ( 'NONE', *, *, #161, .F. ) ;
#50 = ADVANCED_FACE ( 'NONE', ( #82 ), #177, .T. ) ;
#51 = DATE_TIME_ROLE ( 'creation_date' ) ;
#52 =( LENGTH_UNIT ( ) NAMED_UNIT ( * ) SI_UNIT ( .MILLI., .METRE. ) );
#53 = UNCERTAINTY_MEASURE_WITH_UNIT (LENGTH_MEASURE( 1.000000000000000082E-05 ), #52, 'distance_accuracy_value', 'NONE');
#54 = APPROVAL_STATUS ( 'not_yet_approved' ) ;
#55 = MANIFOLD_SOLID_BREP ( 'Corps-Déplacer/Copier1[2]', #5 ) ;
#56 = LINE ( 'NONE', #156, #14 ) ;
#57 = DIRECTION ( 'NONE',  ( -3.491481338843133355E-15, 1.224646799147353207E-16, -1.000000000000000000 ) ) ;
#58 = CLOSED_SHELL ( 'NONE', ( #306, #199, #197, #314, #288, #151 ) ) ;
#59 = CIRCLE ( 'NONE', #240, 2.449999999999997513 ) ;
#60 = CARTESIAN_POINT ( 'NONE',  ( 6.982962677686266711E-14, -2.449293598294706513E-15, 20.00000000000000000 ) ) ;
#61 = ORIENTED_EDGE ( 'NONE', *, *, #321, .T. ) ;
#62 = EDGE_CURVE ( 'NONE', #334, #211, #56, .T. ) ;
#63 = DIRECTION ( 'NONE',  ( 0.0000000000000000000, 1.000000000000000000, 0.0000000000000000000 ) ) ;
#64 = CARTESIAN_POINT ( 'NONE',  ( 6.982962677686266711E-14, 1.837205733760769822E-32, 20.00000000000000000 ) ) ;
#65 = MANIFOLD_SOLID_BREP ( 'Corps-Déplacer/Copier1[1]', #58 ) ;
#66 = ORIENTED_EDGE ( 'NONE', *, *, #97, .F. ) ;
#67 = LINE ( 'NONE', #221, #218 ) ;
#68 = PERSON_AND_ORGANIZATION ( #107, #194 ) ;
#69 = DIRECTION ( 'NONE',  ( 0.0000000000000000000, 1.000000000000000000, 0.0000000000000000000 ) ) ;
#70 = ORIENTED_EDGE ( 'NONE', *, *, #126, .F. ) ;
#71 = CIRCLE ( 'NONE', #324, 2.450000000000001954 ) ;
#72 = DIRECTION ( 'NONE',  ( 4.275831445896958607E-31, 1.000000000000000000, 1.224646799147353207E-16 ) ) ;
#73 = CARTESIAN_POINT ( 'NONE',  ( 1.047578704244754850E-30, 2.449999999999999734, 3.000384657911015370E-16 ) ) ;
#74 = CALENDAR_DATE ( 2021, 3, 9 ) ;
#75 = CC_DESIGN_PERSON_AND_ORGANIZATION_ASSIGNMENT ( #68, #247, ( #135 ) ) ;
#76 = AXIS2_PLACEMENT_3D ( 'NONE', #12, #36, #133 ) ;
#77 = CALENDAR_DATE ( 2021, 3, 9 ) ;
#78 = ORIENTED_EDGE ( 'NONE', *, *, #189, .T. ) ;
#79 = APPROVAL_PERSON_ORGANIZATION ( #323, #147, #98 ) ;
#80 = FACE_OUTER_BOUND ( 'NONE', #159, .T. ) ;
#81 = DIRECTION ( 'NONE',  ( 3.491481338843133355E-15, -1.224646799147353207E-16, 1.000000000000000000 ) ) ;
#82 = FACE_OUTER_BOUND ( 'NONE', #209, .T. ) ;
#83 = ORIENTED_EDGE ( 'NONE', *, *, #238, .F. ) ;
#84 = AXIS2_PLACEMENT_3D ( 'NONE', #260, #326, #301 ) ;
#85 = DIRECTION ( 'NONE',  ( 3.144375419407738726E-31, 1.000000000000000000, 8.850629979473524500E-17 ) ) ;
#86 = ORIENTED_EDGE ( 'NONE', *, *, #329, .T. ) ;
#87 = CARTESIAN_POINT ( 'NONE',  ( 0.0000000000000000000, 0.0000000000000000000, 0.0000000000000000000 ) ) ;
#88 = DATE_AND_TIME ( #140, #206 ) ;
#89 = DIRECTION ( 'NONE',  ( -3.491481338843133355E-15, 1.224646799147353207E-16, -1.000000000000000000 ) ) ;
#90 = CIRCLE ( 'NONE', #138, 2.450000000000001954 ) ;
#91 = CARTESIAN_POINT ( 'NONE',  ( 2.164718430082742680E-13, -7.592810154713590230E-15, 62.00000000000000000 ) ) ;
#92 = ORIENTED_EDGE ( 'NONE', *, *, #105, .T. ) ;
#93 = CC_DESIGN_PERSON_AND_ORGANIZATION_ASSIGNMENT ( #239, #214, ( #168 ) ) ;
#94 = CARTESIAN_POINT ( 'NONE',  ( 0.0000000000000000000, 0.0000000000000000000, 0.0000000000000000000 ) ) ;
#95 = CARTESIAN_POINT ( 'NONE',  ( 6.982962677686266711E-14, 2.449999999999994849, 20.00000000000000000 ) ) ;
#96 = VECTOR ( 'NONE', #228, 1000.000000000000000 ) ;
#97 = EDGE_CURVE ( 'NONE', #35, #334, #173, .T. ) ;
#98 = APPROVAL_ROLE ( '' ) ;
#99 = EDGE_LOOP ( 'NONE', ( #182, #9, #175, #18 ) ) ;
#100 = DIRECTION ( 'NONE',  ( -3.491481338843133355E-15, 1.224646799147353207E-16, -1.000000000000000000 ) ) ;
#101 = CARTESIAN_POINT ( 'NONE',  ( 1.047578704244753273E-30, 2.449999999999996181, 3.000384657911010440E-16 ) ) ;
#102 = DIRECTION ( 'NONE',  ( -3.491481338843133355E-15, 1.224646799147353207E-16, -1.000000000000000000 ) ) ;
#103 = DIRECTION ( 'NONE',  ( 1.000000000000000000, 0.0000000000000000000, 0.0000000000000000000 ) ) ;
#104 = CARTESIAN_POINT ( 'NONE',  ( 3.778477156148348465E-14, -2.449999999999999734, 20.00000000000000000 ) ) ;
#105 = EDGE_CURVE ( 'NONE', #285, #207, #253, .T. ) ;
#106 = DIRECTION ( 'NONE',  ( -3.491481338843133355E-15, 1.224646799147353207E-16, -1.000000000000000000 ) ) ;
#107 = PERSON ( 'UNSPECIFIED', 'UNSPECIFIED', 'UNSPECIFIED', ('UNSPECIFIED'), ('UNSPECIFIED'), ('UNSPECIFIED') ) ;
#108 = ORIENTED_EDGE ( 'NONE', *, *, #179, .F. ) ;
#109 = APPLICATION_CONTEXT ( 'configuration controlled 3d designs of mechanical parts and assemblies' ) ;
#110 = AXIS2_PLACEMENT_3D ( 'NONE', #94, #320, #72 ) ;
#111 = CARTESIAN_POINT ( 'NONE',  ( 2.147261023388527077E-13, 2.449999999999994849, 61.50000000000000000 ) ) ;
#112 = AXIS2_PLACEMENT_3D ( 'NONE', #91, #220, #69 ) ;
#113 = COORDINATED_UNIVERSAL_TIME_OFFSET ( 1, 0, .AHEAD. ) ;
#114 = DIRECTION ( 'NONE',  ( -3.491481338843133355E-15, 1.224646799147353207E-16, -1.000000000000000000 ) ) ;
#115 = CC_DESIGN_PERSON_AND_ORGANIZATION_ASSIGNMENT ( #146, #264, ( #168 ) ) ;
#116 = ORIENTED_EDGE ( 'NONE', *, *, #38, .F. ) ;
#117 = CARTESIAN_POINT ( 'NONE',  ( 5.139839414522172377E-15, -2.449999999999994849, 1.472108516617535612 ) ) ;
#118 = CC_DESIGN_APPROVAL ( #147, ( #8 ) ) ;
#119 = FACE_OUTER_BOUND ( 'NONE', #172, .T. ) ;
#120 = AXIS2_PLACEMENT_3D ( 'NONE', #280, #102, #85 ) ;
#121 = VERTEX_POINT ( 'NONE', #141 ) ;
#122 = PERSON_AND_ORGANIZATION ( #107, #194 ) ;
#123 = EDGE_CURVE ( 'NONE', #207, #6, #219, .T. ) ;
#124 = PERSON_AND_ORGANIZATION ( #107, #194 ) ;
#125 = LOCAL_TIME ( 9, 22, 18.00000000000000000, #226 ) ;
#126 = EDGE_CURVE ( 'NONE', #334, #35, #59, .T. ) ;
#127 = VERTEX_POINT ( 'NONE', #42 ) ;
#128 = EDGE_LOOP ( 'NONE', ( #248, #78, #44 ) ) ;
#129 = ORIENTED_EDGE ( 'NONE', *, *, #268, .T. ) ;
#130 = CIRCLE ( 'NONE', #120, 2.449999999999994849 ) ;
#131 = VERTEX_POINT ( 'NONE', #95 ) ;
#132 = APPROVAL ( #54, 'UNSPECIFIED' ) ;
#133 = DIRECTION ( 'NONE',  ( 3.144375419407738726E-31, 1.000000000000000000, 8.850629979473524500E-17 ) ) ;
#134 = ORIENTED_EDGE ( 'NONE', *, *, #126, .T. ) ;
#135 = PRODUCT ( '41914', '41914', '', ( #2 ) ) ;
#136 = DATE_AND_TIME ( #243, #48 ) ;
#137 = EDGE_CURVE ( 'NONE', #266, #131, #196, .T. ) ;
#138 = AXIS2_PLACEMENT_3D ( 'NONE', #213, #45, #10 ) ;
#139 = DIRECTION ( 'NONE',  ( 3.491481338843133355E-15, -1.224646799147353207E-16, 1.000000000000000000 ) ) ;
#140 = CALENDAR_DATE ( 2021, 3, 9 ) ;
#141 = CARTESIAN_POINT ( 'NONE',  ( 0.0000000000000000000, 0.0000000000000000000, 0.0000000000000000000 ) ) ;
#142 = DIRECTION ( 'NONE',  ( -3.491481338843133355E-15, 1.224646799147353207E-16, -1.000000000000000000 ) ) ;
#143 = VECTOR ( 'NONE', #145, 1000.000000000000000 ) ;
#144 = ADVANCED_BREP_SHAPE_REPRESENTATION ( '41914', ( #65, #55, #298 ), #333 ) ;
#145 = DIRECTION ( 'NONE',  ( -3.491481338843133355E-15, 1.224646799147353207E-16, -1.000000000000000000 ) ) ;
#146 = PERSON_AND_ORGANIZATION ( #107, #194 ) ;
#147 = APPROVAL ( #325, 'UNSPECIFIED' ) ;
#148 = VECTOR ( 'NONE', #224, 999.9999999999998863 ) ;
#149 = CARTESIAN_POINT ( 'NONE',  ( 5.439877880313275541E-15, 2.449999999999994849, 1.472108516617536056 ) ) ;
#150 = COORDINATED_UNIVERSAL_TIME_OFFSET ( 1, 0, .AHEAD. ) ;
#151 = ADVANCED_FACE ( 'NONE', ( #21 ), #229, .F. ) ;
#152 = VECTOR ( 'NONE', #216, 1000.000000000000000 ) ;
#153 = DIRECTION ( 'NONE',  ( 4.275831445896958607E-31, 1.000000000000000000, 1.224646799147353454E-16 ) ) ;
#154 = DIRECTION ( 'NONE',  ( 0.0000000000000000000, 1.000000000000000000, 0.0000000000000000000 ) ) ;
#155 = CARTESIAN_POINT ( 'NONE',  ( 6.982962677686266711E-14, -2.449293598294706513E-15, 20.00000000000000000 ) ) ;
#156 = CARTESIAN_POINT ( 'NONE',  ( 3.000384657911000086E-16, -2.449999999999996181, -3.000384657911020793E-16 ) ) ;
#157 = APPLICATION_CONTEXT ( 'configuration controlled 3d designs of mechanical parts and assemblies' ) ;
#158 = FACE_OUTER_BOUND ( 'NONE', #312, .T. ) ;
#159 = EDGE_LOOP ( 'NONE', ( #318, #134, #185, #116 ) ) ;
#160 = ORIENTED_EDGE ( 'NONE', *, *, #227, .F. ) ;
#161 = EDGE_CURVE ( 'NONE', #35, #127, #331, .T. ) ;
#162 = FACE_OUTER_BOUND ( 'NONE', #37, .T. ) ;
#163 = DIRECTION ( 'NONE',  ( 0.0000000000000000000, 1.000000000000000000, 0.0000000000000000000 ) ) ;
#164 = AXIS2_PLACEMENT_3D ( 'NONE', #275, #293, #254 ) ;
#165 = CARTESIAN_POINT ( 'NONE',  ( 6.982962677686266711E-14, -2.449293598294706513E-15, 20.00000000000000000 ) ) ;
#166 = FACE_OUTER_BOUND ( 'NONE', #286, .T. ) ;
#167 = EDGE_CURVE ( 'NONE', #183, #285, #212, .T. ) ;
#168 = PRODUCT_DEFINITION_FORMATION_WITH_SPECIFIED_SOURCE ( 'ANY', '', #135, .NOT_KNOWN. ) ;
#169 = APPROVAL_DATE_TIME ( #259, #147 ) ;
#170 = CC_DESIGN_DATE_AND_TIME_ASSIGNMENT ( #332, #51, ( #8 ) ) ;
#171 = DATE_AND_TIME ( #77, #28 ) ;
#172 = EDGE_LOOP ( 'NONE', ( #86, #1 ) ) ;
#173 = CIRCLE ( 'NONE', #25, 2.449999999999997513 ) ;
#174 = DIRECTION ( 'NONE',  ( -3.144375419407738726E-31, -1.000000000000000000, -8.850629979473524500E-17 ) ) ;
#175 = ORIENTED_EDGE ( 'NONE', *, *, #227, .T. ) ;
#176 = ORIENTED_EDGE ( 'NONE', *, *, #189, .F. ) ;
#177 = CONICAL_SURFACE ( 'NONE', #205, 2.449999999999994849, 1.029744258676649649 ) ;
#178 = DIRECTION ( 'NONE',  ( 3.491481338843133355E-15, -1.224646799147353207E-16, 1.000000000000000000 ) ) ;
#179 = EDGE_CURVE ( 'NONE', #285, #183, #319, .T. ) ;
#180 = DIRECTION ( 'NONE',  ( 0.0000000000000000000, 1.000000000000000000, 0.0000000000000000000 ) ) ;
#181 = ORIENTED_EDGE ( 'NONE', *, *, #329, .F. ) ;
#182 = ORIENTED_EDGE ( 'NONE', *, *, #105, .F. ) ;
#183 = VERTEX_POINT ( 'NONE', #330 ) ;
#184 = CYLINDRICAL_SURFACE ( 'NONE', #273, 2.449999999999999734 ) ;
#185 = ORIENTED_EDGE ( 'NONE', *, *, #161, .T. ) ;
#186 = CARTESIAN_POINT ( 'NONE',  ( 2.158683949693759001E-13, -1.950000000000009948, 62.00000000000000000 ) ) ;
#187 = CC_DESIGN_SECURITY_CLASSIFICATION ( #328, ( #168 ) ) ;
#188 = COORDINATED_UNIVERSAL_TIME_OFFSET ( 1, 0, .AHEAD. ) ;
#189 = EDGE_CURVE ( 'NONE', #121, #127, #278, .T. ) ;
#190 = ORIENTED_EDGE ( 'NONE', *, *, #167, .T. ) ;
#191 = EDGE_LOOP ( 'NONE', ( #61, #299, #181, #3 ) ) ;
#192 = CARTESIAN_POINT ( 'NONE',  ( 2.167106491341079902E-13, -1.950000000000009948, 62.00000000000000000 ) ) ;
#193 = ORIENTED_EDGE ( 'NONE', *, *, #62, .T. ) ;
#194 = ORGANIZATION ( 'UNSPECIFIED', 'UNSPECIFIED', '' ) ;
#195 = SHAPE_DEFINITION_REPRESENTATION ( #31, #144 ) ;
#196 = LINE ( 'NONE', #73, #143 ) ;
#197 = ADVANCED_FACE ( 'NONE', ( #119 ), #237, .F. ) ;
#198 = AXIS2_PLACEMENT_3D ( 'NONE', #233, #57, #153 ) ;
#199 = ADVANCED_FACE ( 'NONE', ( #265 ), #27, .T. ) ;
#200 = DESIGN_CONTEXT ( 'detailed design', #109, 'design' ) ;
#201 = EDGE_LOOP ( 'NONE', ( #252, #129, #20, #215 ) ) ;
#202 = DIRECTION ( 'NONE',  ( 0.0000000000000000000, 1.000000000000000000, 0.0000000000000000000 ) ) ;
#203 = CYLINDRICAL_SURFACE ( 'NONE', #270, 2.449999999999996181 ) ;
#204 = APPROVAL_ROLE ( '' ) ;
#205 = AXIS2_PLACEMENT_3D ( 'NONE', #337, #178, #174 ) ;
#206 = LOCAL_TIME ( 9, 22, 18.00000000000000000, #113 ) ;
#207 = VERTEX_POINT ( 'NONE', #267 ) ;
#208 = CARTESIAN_POINT ( 'NONE',  ( 6.982962677686266711E-14, -2.449293598294706513E-15, 20.00000000000000000 ) ) ;
#209 = EDGE_LOOP ( 'NONE', ( #176, #296, #327 ) ) ;
#210 = ADVANCED_FACE ( 'NONE', ( #272 ), #279, .T. ) ;
#211 = VERTEX_POINT ( 'NONE', #117 ) ;
#212 = CIRCLE ( 'NONE', #84, 1.950000000000002398 ) ;
#213 = CARTESIAN_POINT ( 'NONE',  ( 2.147261023388527077E-13, -7.531577814756222656E-15, 61.50000000000000000 ) ) ;
#214 = PERSON_AND_ORGANIZATION_ROLE ( 'design_supplier' ) ;
#215 = ORIENTED_EDGE ( 'NONE', *, *, #22, .F. ) ;
#216 = DIRECTION ( 'NONE',  ( -3.491481338843133355E-15, 1.224646799147353207E-16, -1.000000000000000000 ) ) ;
#217 = LINE ( 'NONE', #297, #281 ) ;
#218 = VECTOR ( 'NONE', #245, 1000.000000000000000 ) ;
#219 = LINE ( 'NONE', #46, #152 ) ;
#220 = DIRECTION ( 'NONE',  ( -3.491481338843133355E-15, 1.224646799147353207E-16, -1.000000000000000000 ) ) ;
#221 = CARTESIAN_POINT ( 'NONE',  ( 5.139839414522172377E-15, -2.449999999999994849, 1.472108516617535612 ) ) ;
#222 = PRODUCT_RELATED_PRODUCT_CATEGORY ( 'detail', '', ( #135 ) ) ;
#223 = CONICAL_SURFACE ( 'NONE', #164, 1.950000000000002398, 0.7853981633974476129 ) ;
#224 = DIRECTION ( 'NONE',  ( -2.382254525458718258E-15, -0.7071067811865469066, -0.7071067811865482389 ) ) ;
#225 = DIRECTION ( 'NONE',  ( -3.491481338843133355E-15, 1.224646799147353207E-16, -1.000000000000000000 ) ) ;
#226 = COORDINATED_UNIVERSAL_TIME_OFFSET ( 1, 0, .AHEAD. ) ;
#227 = EDGE_CURVE ( 'NONE', #183, #266, #217, .T. ) ;
#228 = DIRECTION ( 'NONE',  ( -3.491481338843133355E-15, 1.224646799147353207E-16, -1.000000000000000000 ) ) ;
#229 = PLANE ( 'NONE',  #246 ) ;
#230 = AXIS2_PLACEMENT_3D ( 'NONE', #208, #235, #154 ) ;
#231 = APPROVAL_DATE_TIME ( #171, #132 ) ;
#232 = EDGE_CURVE ( 'NONE', #121, #211, #67, .T. ) ;
#233 = CARTESIAN_POINT ( 'NONE',  ( 0.0000000000000000000, 0.0000000000000000000, 0.0000000000000000000 ) ) ;
#234 = AXIS2_PLACEMENT_3D ( 'NONE', #155, #4, #180 ) ;
#235 = DIRECTION ( 'NONE',  ( -3.491481338843133355E-15, 1.224646799147353207E-16, -1.000000000000000000 ) ) ;
#236 = CARTESIAN_POINT ( 'NONE',  ( 0.0000000000000000000, 0.0000000000000000000, 0.0000000000000000000 ) ) ;
#237 = PLANE ( 'NONE',  #261 ) ;
#238 = EDGE_CURVE ( 'NONE', #127, #211, #40, .T. ) ;
#239 = PERSON_AND_ORGANIZATION ( #107, #194 ) ;
#240 = AXIS2_PLACEMENT_3D ( 'NONE', #165, #89, #292 ) ;
#241 = CARTESIAN_POINT ( 'NONE',  ( 6.982962677686266711E-14, 1.837205733760769822E-32, 20.00000000000000000 ) ) ;
#242 = DIRECTION ( 'NONE',  ( -4.275831445896958607E-31, -1.000000000000000000, -1.224646799147353207E-16 ) ) ;
#243 = CALENDAR_DATE ( 2021, 3, 9 ) ;
#244 = CIRCLE ( 'NONE', #230, 2.449999999999997513 ) ;
#245 = DIRECTION ( 'NONE',  ( 1.798245827342160317E-15, -0.8571673007021098911, 0.5150380749100582634 ) ) ;
#246 = AXIS2_PLACEMENT_3D ( 'NONE', #302, #100, #23 ) ;
#247 = PERSON_AND_ORGANIZATION_ROLE ( 'design_owner' ) ;
#248 = ORIENTED_EDGE ( 'NONE', *, *, #232, .F. ) ;
#249 = DIRECTION ( 'NONE',  ( -3.144375419407738726E-31, -1.000000000000000000, -8.850629979473524500E-17 ) ) ;
#250 = DATE_TIME_ROLE ( 'classification_date' ) ;
#251 = CC_DESIGN_DATE_AND_TIME_ASSIGNMENT ( #88, #250, ( #328 ) ) ;
#252 = ORIENTED_EDGE ( 'NONE', *, *, #123, .F. ) ;
#253 = LINE ( 'NONE', #192, #148 ) ;
#254 = DIRECTION ( 'NONE',  ( 0.0000000000000000000, 1.000000000000000000, 0.0000000000000000000 ) ) ;
#255 = AXIS2_PLACEMENT_3D ( 'NONE', #26, #142, #202 ) ;
#256 = DIRECTION ( 'NONE',  ( 1.903218546456022717E-15, 0.8571673007021097801, 0.5150380749100585964 ) ) ;
#257 = PERSON_AND_ORGANIZATION ( #107, #194 ) ;
#258 = ADVANCED_FACE ( 'NONE', ( #162 ), #16, .T. ) ;
#259 = DATE_AND_TIME ( #74, #125 ) ;
#260 = CARTESIAN_POINT ( 'NONE',  ( 2.164718430082742680E-13, -7.592810154713590230E-15, 62.00000000000000000 ) ) ;
#261 = AXIS2_PLACEMENT_3D ( 'NONE', #64, #81, #242 ) ;
#262 = CARTESIAN_POINT ( 'NONE',  ( 0.0000000000000000000, 0.0000000000000000000, 0.0000000000000000000 ) ) ;
#263 =( NAMED_UNIT ( * ) PLANE_ANGLE_UNIT ( ) SI_UNIT ( $, .RADIAN. ) );
#264 = PERSON_AND_ORGANIZATION_ROLE ( 'creator' ) ;
#265 = FACE_OUTER_BOUND ( 'NONE', #191, .T. ) ;
#266 = VERTEX_POINT ( 'NONE', #111 ) ;
#267 = CARTESIAN_POINT ( 'NONE',  ( 1.425779030236486762E-13, -2.450000000000009504, 61.50000000000000000 ) ) ;
#268 = EDGE_CURVE ( 'NONE', #207, #266, #90, .T. ) ;
#269 = ORIENTED_EDGE ( 'NONE', *, *, #167, .F. ) ;
#270 = AXIS2_PLACEMENT_3D ( 'NONE', #262, #225, #271 ) ;
#271 = DIRECTION ( 'NONE',  ( 4.275831445896958607E-31, 1.000000000000000000, 1.224646799147353207E-16 ) ) ;
#272 = FACE_OUTER_BOUND ( 'NONE', #128, .T. ) ;
#273 = AXIS2_PLACEMENT_3D ( 'NONE', #87, #287, #317 ) ;
#274 = APPROVAL_STATUS ( 'not_yet_approved' ) ;
#275 = CARTESIAN_POINT ( 'NONE',  ( 2.164718430082742680E-13, -7.592810154713590230E-15, 62.00000000000000000 ) ) ;
#276 = CALENDAR_DATE ( 2021, 3, 9 ) ;
#277 = APPROVAL ( #274, 'UNSPECIFIED' ) ;
#278 = LINE ( 'NONE', #149, #310 ) ;
#279 = CONICAL_SURFACE ( 'NONE', #47, 2.449999999999994849, 1.029744258676649649 ) ;
#280 = CARTESIAN_POINT ( 'NONE',  ( 5.139839414522173166E-15, -1.802812982873223364E-16, 1.472108516617535834 ) ) ;
#281 = VECTOR ( 'NONE', #316, 1000.000000000000000 ) ;
#282 = APPROVAL_PERSON_ORGANIZATION ( #294, #277, #39 ) ;
#283 = ORIENTED_EDGE ( 'NONE', *, *, #97, .T. ) ;
#284 = DIRECTION ( 'NONE',  ( 3.491481338843133355E-15, -1.224646799147353207E-16, 1.000000000000000000 ) ) ;
#285 = VERTEX_POINT ( 'NONE', #186 ) ;
#286 = EDGE_LOOP ( 'NONE', ( #190, #92, #17, #160 ) ) ;
#287 = DIRECTION ( 'NONE',  ( -3.491481338843133355E-15, 1.224646799147353207E-16, -1.000000000000000000 ) ) ;
#288 = ADVANCED_FACE ( 'NONE', ( #313 ), #300, .T. ) ;
#289 = AXIS2_PLACEMENT_3D ( 'NONE', #241, #284, #309 ) ;
#290 =( NAMED_UNIT ( * ) SI_UNIT ( $, .STERADIAN. ) SOLID_ANGLE_UNIT ( ) );
#291 = CARTESIAN_POINT ( 'NONE',  ( 5.139839414522173166E-15, -1.802812982873223364E-16, 1.472108516617535834 ) ) ;
#292 = DIRECTION ( 'NONE',  ( 0.0000000000000000000, 1.000000000000000000, 0.0000000000000000000 ) ) ;
#293 = DIRECTION ( 'NONE',  ( -3.491481338843133355E-15, 1.224646799147353207E-16, -1.000000000000000000 ) ) ;
#294 = PERSON_AND_ORGANIZATION ( #107, #194 ) ;
#295 = ADVANCED_FACE ( 'NONE', ( #80 ), #203, .T. ) ;
#296 = ORIENTED_EDGE ( 'NONE', *, *, #232, .T. ) ;
#297 = CARTESIAN_POINT ( 'NONE',  ( 2.164718430082742680E-13, 1.949999999999994627, 62.00000000000000000 ) ) ;
#298 = AXIS2_PLACEMENT_3D ( 'NONE', #236, #335, #103 ) ;
#299 = ORIENTED_EDGE ( 'NONE', *, *, #123, .T. ) ;
#300 = CONICAL_SURFACE ( 'NONE', #112, 1.950000000000002398, 0.7853981633974476129 ) ;
#301 = DIRECTION ( 'NONE',  ( 0.0000000000000000000, 1.000000000000000000, 0.0000000000000000000 ) ) ;
#302 = CARTESIAN_POINT ( 'NONE',  ( 2.164718430082742680E-13, 1.462265788095301588E-32, 62.00000000000000000 ) ) ;
#303 = COORDINATED_UNIVERSAL_TIME_OFFSET ( 1, 0, .AHEAD. ) ;
#304 = CC_DESIGN_PERSON_AND_ORGANIZATION_ASSIGNMENT ( #124, #41, ( #328 ) ) ;
#305 = LOCAL_TIME ( 9, 22, 18.00000000000000000, #303 ) ;
#306 = ADVANCED_FACE ( 'NONE', ( #166 ), #223, .T. ) ;
#307 = CARTESIAN_POINT ( 'NONE',  ( 1.425779030236487519E-13, -2.449999999999999734, 20.00000000000000000 ) ) ;
#308 = EDGE_LOOP ( 'NONE', ( #269, #108 ) ) ;
#309 = DIRECTION ( 'NONE',  ( -4.275831445896958607E-31, -1.000000000000000000, -1.224646799147353207E-16 ) ) ;
#310 = VECTOR ( 'NONE', #256, 999.9999999999998863 ) ;
#311 = DIRECTION ( 'NONE',  ( -3.491481338843133355E-15, 1.224646799147353207E-16, -1.000000000000000000 ) ) ;
#312 = EDGE_LOOP ( 'NONE', ( #66, #70 ) ) ;
#313 = FACE_OUTER_BOUND ( 'NONE', #99, .T. ) ;
#314 = ADVANCED_FACE ( 'NONE', ( #336 ), #184, .T. ) ;
#315 = SECURITY_CLASSIFICATION_LEVEL ( 'unclassified' ) ;
#316 = DIRECTION ( 'NONE',  ( -2.468850131082267316E-15, 0.7071067811865471286, -0.7071067811865479058 ) ) ;
#317 = DIRECTION ( 'NONE',  ( 4.275831445896958607E-31, 1.000000000000000000, 1.224646799147353454E-16 ) ) ;
#318 = ORIENTED_EDGE ( 'NONE', *, *, #62, .F. ) ;
#319 = CIRCLE ( 'NONE', #255, 1.950000000000002398 ) ;
#320 = DIRECTION ( 'NONE',  ( -3.491481338843133355E-15, 1.224646799147353207E-16, -1.000000000000000000 ) ) ;
#321 = EDGE_CURVE ( 'NONE', #266, #207, #71, .T. ) ;
#322 = APPROVAL_DATE_TIME ( #136, #277 ) ;
#323 = PERSON_AND_ORGANIZATION ( #107, #194 ) ;
#324 = AXIS2_PLACEMENT_3D ( 'NONE', #30, #311, #63 ) ;
#325 = APPROVAL_STATUS ( 'not_yet_approved' ) ;
#326 = DIRECTION ( 'NONE',  ( -3.491481338843133355E-15, 1.224646799147353207E-16, -1.000000000000000000 ) ) ;
#327 = ORIENTED_EDGE ( 'NONE', *, *, #38, .T. ) ;
#328 = SECURITY_CLASSIFICATION ( '', '', #315 ) ;
#329 = EDGE_CURVE ( 'NONE', #131, #6, #7, .T. ) ;
#330 = CARTESIAN_POINT ( 'NONE',  ( 2.164718430082742680E-13, 1.949999999999994627, 62.00000000000000000 ) ) ;
#331 = LINE ( 'NONE', #101, #96 ) ;
#332 = DATE_AND_TIME ( #276, #305 ) ;
#333 =( GEOMETRIC_REPRESENTATION_CONTEXT ( 3 ) GLOBAL_UNCERTAINTY_ASSIGNED_CONTEXT ( ( #53 ) ) GLOBAL_UNIT_ASSIGNED_CONTEXT ( ( #52, #263, #290 ) ) REPRESENTATION_CONTEXT ( 'NONE', 'WORKASPACE' ) );
#334 = VERTEX_POINT ( 'NONE', #104 ) ;
#335 = DIRECTION ( 'NONE',  ( 0.0000000000000000000, 0.0000000000000000000, 1.000000000000000000 ) ) ;
#336 = FACE_OUTER_BOUND ( 'NONE', #201, .T. ) ;
#337 = CARTESIAN_POINT ( 'NONE',  ( 5.139839414522173166E-15, -1.802812982873223364E-16, 1.472108516617535834 ) ) ;
ENDSEC;
END-ISO-10303-21;
