ISO-10303-21;
HEADER;
FILE_DESCRIPTION (( 'STEP AP203' ),
    '1' );
FILE_NAME ('41911.step',
    '2021-09-03T07:22:18',
    ( '' ),
    ( '' ),
    'SwSTEP 2.0',
    'SolidWorks 2019',
    '' );
FILE_SCHEMA (( 'CONFIG_CONTROL_DESIGN' ));
ENDSEC;

DATA;
#1 = FACE_OUTER_BOUND ( 'NONE', #237, .T. ) ;
#2 = DATE_AND_TIME ( #284, #227 ) ;
#3 = DIRECTION ( 'NONE',  ( 0.0000000000000000000, 1.000000000000000000, 0.0000000000000000000 ) ) ;
#4 = CIRCLE ( 'NONE', #110, 1.150000000000000355 ) ;
#5 = CARTESIAN_POINT ( 'NONE',  ( 4.189777606611760026E-14, -1.469576158976823947E-15, 12.00000000000000000 ) ) ;
#6 = APPROVAL_DATE_TIME ( #2, #32 ) ;
#7 = VERTEX_POINT ( 'NONE', #211 ) ;
#8 = ORIENTED_EDGE ( 'NONE', *, *, #18, .F. ) ;
#9 = EDGE_CURVE ( 'NONE', #17, #12, #274, .T. ) ;
#10 = AXIS2_PLACEMENT_3D ( 'NONE', #275, #103, #48 ) ;
#11 = CONICAL_SURFACE ( 'NONE', #184, 1.150000000000000355, 0.7853981633974453924 ) ;
#12 = VERTEX_POINT ( 'NONE', #164 ) ;
#13 = PERSON_AND_ORGANIZATION_ROLE ( 'creator' ) ;
#14 = CARTESIAN_POINT ( 'NONE',  ( 0.0000000000000000000, 0.0000000000000000000, 0.0000000000000000000 ) ) ;
#15 = LOCAL_TIME ( 9, 22, 18.00000000000000000, #251 ) ;
#16 = ORIENTED_EDGE ( 'NONE', *, *, #45, .F. ) ;
#17 = VERTEX_POINT ( 'NONE', #267 ) ;
#18 = EDGE_CURVE ( 'NONE', #234, #87, #127, .T. ) ;
#19 = CARTESIAN_POINT ( 'NONE',  ( 0.0000000000000000000, 0.0000000000000000000, 0.0000000000000000000 ) ) ;
#20 = APPROVAL_PERSON_ORGANIZATION ( #304, #233, #71 ) ;
#21 = ORIENTED_EDGE ( 'NONE', *, *, #224, .T. ) ;
#22 = ADVANCED_FACE ( 'NONE', ( #215 ), #337, .T. ) ;
#23 = PLANE ( 'NONE',  #99 ) ;
#24 = ORIENTED_EDGE ( 'NONE', *, *, #181, .T. ) ;
#25 = DIRECTION ( 'NONE',  ( 4.275831445896959482E-31, 1.000000000000000000, 1.224646799147353207E-16 ) ) ;
#26 = CC_DESIGN_PERSON_AND_ORGANIZATION_ASSIGNMENT ( #179, #58, ( #298 ) ) ;
#27 = DIRECTION ( 'NONE',  ( 0.0000000000000000000, 1.000000000000000000, 0.0000000000000000000 ) ) ;
#28 = CC_DESIGN_APPROVAL ( #233, ( #298 ) ) ;
#29 = CARTESIAN_POINT ( 'NONE',  ( 1.009068104115005973E-13, -1.450000000000005729, 45.69999999999999574 ) ) ;
#30 = CALENDAR_DATE ( 2021, 3, 9 ) ;
#31 = EDGE_LOOP ( 'NONE', ( #97, #229, #242, #8 ) ) ;
#32 = APPROVAL ( #196, 'UNSPECIFIED' ) ;
#33 = DIRECTION ( 'NONE',  ( 1.000000000000000000, 0.0000000000000000000, 0.0000000000000000000 ) ) ;
#34 = CYLINDRICAL_SURFACE ( 'NONE', #158, 1.449999999999995515 ) ;
#35 = CARTESIAN_POINT ( 'NONE',  ( 3.041945775941689718E-15, -1.066970949047416252E-16, 0.8712478975899687894 ) ) ;
#36 = CLOSED_SHELL ( 'NONE', ( #292, #22, #331, #245, #115, #328 ) ) ;
#37 = AXIS2_PLACEMENT_3D ( 'NONE', #319, #105, #33 ) ;
#38 = APPROVAL_ROLE ( '' ) ;
#39 = FACE_OUTER_BOUND ( 'NONE', #144, .T. ) ;
#40 = CARTESIAN_POINT ( 'NONE',  ( 4.189777606611760026E-14, -1.469576158976823947E-15, 12.00000000000000000 ) ) ;
#41 = ORIENTED_EDGE ( 'NONE', *, *, #230, .F. ) ;
#42 = FACE_OUTER_BOUND ( 'NONE', #289, .T. ) ;
#43 =( NAMED_UNIT ( * ) SI_UNIT ( $, .STERADIAN. ) SOLID_ANGLE_UNIT ( ) );
#44 = LINE ( 'NONE', #276, #326 ) ;
#45 = EDGE_CURVE ( 'NONE', #218, #7, #261, .T. ) ;
#46 = FACE_OUTER_BOUND ( 'NONE', #205, .T. ) ;
#47 = LINE ( 'NONE', #125, #145 ) ;
#48 = DIRECTION ( 'NONE',  ( 0.0000000000000000000, 1.000000000000000000, 0.0000000000000000000 ) ) ;
#49 = UNCERTAINTY_MEASURE_WITH_UNIT (LENGTH_MEASURE( 1.000000000000000082E-05 ), #193, 'distance_accuracy_value', 'NONE');
#50 = PRODUCT_DEFINITION ( 'UNKNOWN', '', #294, #67 ) ;
#51 = MANIFOLD_SOLID_BREP ( 'Corps-Déplacer/Copier1[2]', #189 ) ;
#52 = ORIENTED_EDGE ( 'NONE', *, *, #307, .F. ) ;
#53 = AXIS2_PLACEMENT_3D ( 'NONE', #173, #334, #133 ) ;
#54 = LOCAL_TIME ( 9, 22, 18.00000000000000000, #157 ) ;
#55 = CARTESIAN_POINT ( 'NONE',  ( 4.189777606611760026E-14, -1.469576158976823947E-15, 12.00000000000000000 ) ) ;
#56 = EDGE_LOOP ( 'NONE', ( #41, #260, #21 ) ) ;
#57 = DIRECTION ( 'NONE',  ( 0.0000000000000000000, 1.000000000000000000, 0.0000000000000000000 ) ) ;
#58 = PERSON_AND_ORGANIZATION_ROLE ( 'classification_officer' ) ;
#59 = MANIFOLD_SOLID_BREP ( 'Corps-Déplacer/Copier1[1]', #36 ) ;
#60 = CIRCLE ( 'NONE', #255, 1.449999999999996181 ) ;
#61 = APPROVAL ( #219, 'UNSPECIFIED' ) ;
#62 = ORIENTED_EDGE ( 'NONE', *, *, #151, .F. ) ;
#63 = DIRECTION ( 'NONE',  ( 0.0000000000000000000, 1.000000000000000000, 0.0000000000000000000 ) ) ;
#64 = EDGE_LOOP ( 'NONE', ( #146, #281, #183, #263 ) ) ;
#65 = ORIENTED_EDGE ( 'NONE', *, *, #151, .T. ) ;
#66 = CALENDAR_DATE ( 2021, 3, 9 ) ;
#67 = DESIGN_CONTEXT ( 'detailed design', #266, 'design' ) ;
#68 = LINE ( 'NONE', #166, #92 ) ;
#69 = LINE ( 'NONE', #333, #94 ) ;
#70 = DIRECTION ( 'NONE',  ( -2.382254525458723780E-15, -0.7071067811865453523, -0.7071067811865496822 ) ) ;
#71 = APPROVAL_ROLE ( '' ) ;
#72 = PLANE ( 'NONE',  #306 ) ;
#73 = DIRECTION ( 'NONE',  ( -3.491481338843133355E-15, 1.224646799147353207E-16, -1.000000000000000000 ) ) ;
#74 = EDGE_CURVE ( 'NONE', #112, #12, #308, .T. ) ;
#75 = CARTESIAN_POINT ( 'NONE',  ( 1.606081415867841091E-13, 1.149999999999994804, 46.00000000000000000 ) ) ;
#76 = DIRECTION ( 'NONE',  ( 0.0000000000000000000, 1.000000000000000000, 0.0000000000000000000 ) ) ;
#77 = ORIENTED_EDGE ( 'NONE', *, *, #95, .T. ) ;
#78 = APPROVAL_STATUS ( 'not_yet_approved' ) ;
#79 = EDGE_CURVE ( 'NONE', #218, #234, #286, .T. ) ;
#80 = SECURITY_CLASSIFICATION_LEVEL ( 'unclassified' ) ;
#81 = DIRECTION ( 'NONE',  ( -3.491481338843133355E-15, 1.224646799147353207E-16, -1.000000000000000000 ) ) ;
#82 = DIRECTION ( 'NONE',  ( -3.491481338843133355E-15, 1.224646799147353207E-16, -1.000000000000000000 ) ) ;
#83 = CC_DESIGN_DATE_AND_TIME_ASSIGNMENT ( #188, #101, ( #298 ) ) ;
#84 = DIRECTION ( 'NONE',  ( -3.491481338843133355E-15, 1.224646799147353207E-16, -1.000000000000000000 ) ) ;
#85 = DIRECTION ( 'NONE',  ( -4.275831445896958607E-31, -1.000000000000000000, -1.224646799147353207E-16 ) ) ;
#86 = CC_DESIGN_APPROVAL ( #32, ( #294 ) ) ;
#87 = VERTEX_POINT ( 'NONE', #280 ) ;
#88 = EDGE_CURVE ( 'NONE', #330, #316, #104, .T. ) ;
#89 = FACE_OUTER_BOUND ( 'NONE', #56, .T. ) ;
#90 = ORIENTED_EDGE ( 'NONE', *, *, #181, .F. ) ;
#91 = CC_DESIGN_PERSON_AND_ORGANIZATION_ASSIGNMENT ( #309, #204, ( #294 ) ) ;
#92 = VECTOR ( 'NONE', #70, 1000.000000000000000 ) ;
#93 = APPROVAL_DATE_TIME ( #142, #61 ) ;
#94 = VECTOR ( 'NONE', #250, 1000.000000000000114 ) ;
#95 = EDGE_CURVE ( 'NONE', #300, #112, #148, .T. ) ;
#96 = CARTESIAN_POINT ( 'NONE',  ( 1.775737858763650823E-16, -1.449999999999995515, -1.775737858763662656E-16 ) ) ;
#97 = ORIENTED_EDGE ( 'NONE', *, *, #79, .F. ) ;
#98 = ORIENTED_EDGE ( 'NONE', *, *, #121, .T. ) ;
#99 = AXIS2_PLACEMENT_3D ( 'NONE', #160, #312, #100 ) ;
#100 = DIRECTION ( 'NONE',  ( -4.275831445896958607E-31, -1.000000000000000000, -1.224646799147353207E-16 ) ) ;
#101 = DATE_TIME_ROLE ( 'classification_date' ) ;
#102 = CARTESIAN_POINT ( 'NONE',  ( 1.595606971851311880E-13, -5.596635872103403844E-15, 45.69999999999999574 ) ) ;
#103 = DIRECTION ( 'NONE',  ( -3.491481338843133355E-15, 1.224646799147353207E-16, -1.000000000000000000 ) ) ;
#104 = CIRCLE ( 'NONE', #10, 1.150000000000000355 ) ;
#105 = DIRECTION ( 'NONE',  ( 0.0000000000000000000, 0.0000000000000000000, 1.000000000000000000 ) ) ;
#106 = EDGE_CURVE ( 'NONE', #207, #87, #288, .T. ) ;
#107 = PERSON_AND_ORGANIZATION_ROLE ( 'design_owner' ) ;
#108 = ORIENTED_EDGE ( 'NONE', *, *, #121, .F. ) ;
#109 = VECTOR ( 'NONE', #82, 1000.000000000000000 ) ;
#110 = AXIS2_PLACEMENT_3D ( 'NONE', #176, #336, #27 ) ;
#111 = DIRECTION ( 'NONE',  ( 3.491481338843133355E-15, -1.224646799147353207E-16, 1.000000000000000000 ) ) ;
#112 = VERTEX_POINT ( 'NONE', #29 ) ;
#113 = PLANE ( 'NONE',  #335 ) ;
#114 = AXIS2_PLACEMENT_3D ( 'NONE', #228, #130, #57 ) ;
#115 = ADVANCED_FACE ( 'NONE', ( #1 ), #253, .T. ) ;
#116 = DIRECTION ( 'NONE',  ( -5.312910191413083962E-31, -1.000000000000000000, -1.495451272393804719E-16 ) ) ;
#117 = EDGE_LOOP ( 'NONE', ( #134, #161, #65, #293 ) ) ;
#118 = PERSON_AND_ORGANIZATION ( #174, #287 ) ;
#119 = APPLICATION_PROTOCOL_DEFINITION ( 'international standard', 'config_control_design', 1994, #266 ) ;
#120 = CARTESIAN_POINT ( 'NONE',  ( 1.606081415867841091E-13, 8.623618750305600506E-33, 46.00000000000000000 ) ) ;
#121 = EDGE_CURVE ( 'NONE', #316, #330, #4, .T. ) ;
#122 = AXIS2_PLACEMENT_3D ( 'NONE', #301, #73, #279 ) ;
#123 = PERSON_AND_ORGANIZATION ( #174, #287 ) ;
#124 = DIRECTION ( 'NONE',  ( 0.0000000000000000000, 1.000000000000000000, 0.0000000000000000000 ) ) ;
#125 = CARTESIAN_POINT ( 'NONE',  ( 3.041945775941688929E-15, -1.449999999999994627, 0.8712478975899685674 ) ) ;
#126 = CARTESIAN_POINT ( 'NONE',  ( 0.0000000000000000000, 0.0000000000000000000, 0.0000000000000000000 ) ) ;
#127 = CIRCLE ( 'NONE', #315, 1.449999999999994627 ) ;
#128 = CIRCLE ( 'NONE', #270, 1.449999999999996181 ) ;
#129 = CC_DESIGN_PERSON_AND_ORGANIZATION_ASSIGNMENT ( #118, #13, ( #50 ) ) ;
#130 = DIRECTION ( 'NONE',  ( -3.491481338843133355E-15, 1.224646799147353207E-16, -1.000000000000000000 ) ) ;
#131 = PERSON_AND_ORGANIZATION_ROLE ( 'creator' ) ;
#132 = APPROVAL_PERSON_ORGANIZATION ( #163, #61, #38 ) ;
#133 = DIRECTION ( 'NONE',  ( 0.0000000000000000000, 1.000000000000000000, 0.0000000000000000000 ) ) ;
#134 = ORIENTED_EDGE ( 'NONE', *, *, #74, .F. ) ;
#135 = APPLICATION_CONTEXT ( 'configuration controlled 3d designs of mechanical parts and assemblies' ) ;
#136 = PRODUCT_DEFINITION_SHAPE ( 'NONE', 'NONE',  #50 ) ;
#137 = FACE_OUTER_BOUND ( 'NONE', #31, .T. ) ;
#138 = MECHANICAL_CONTEXT ( 'NONE', #135, 'mechanical' ) ;
#139 = EDGE_CURVE ( 'NONE', #112, #300, #149, .T. ) ;
#140 = EDGE_LOOP ( 'NONE', ( #254, #155, #332, #90 ) ) ;
#141 = CARTESIAN_POINT ( 'NONE',  ( 4.189777606611760026E-14, 1.087325842429841702E-32, 12.00000000000000000 ) ) ;
#142 = DATE_AND_TIME ( #168, #15 ) ;
#143 = EDGE_CURVE ( 'NONE', #12, #17, #60, .T. ) ;
#144 = EDGE_LOOP ( 'NONE', ( #299, #16 ) ) ;
#145 = VECTOR ( 'NONE', #231, 1000.000000000000000 ) ;
#146 = ORIENTED_EDGE ( 'NONE', *, *, #171, .T. ) ;
#147 = CC_DESIGN_PERSON_AND_ORGANIZATION_ASSIGNMENT ( #182, #131, ( #294 ) ) ;
#148 = CIRCLE ( 'NONE', #53, 1.450000000000000400 ) ;
#149 = CIRCLE ( 'NONE', #302, 1.450000000000000400 ) ;
#150 = ORIENTED_EDGE ( 'NONE', *, *, #74, .T. ) ;
#151 = EDGE_CURVE ( 'NONE', #300, #17, #321, .T. ) ;
#152 = DIRECTION ( 'NONE',  ( -3.491481338843133355E-15, 1.224646799147353207E-16, -1.000000000000000000 ) ) ;
#153 = VECTOR ( 'NONE', #258, 1000.000000000000000 ) ;
#154 = CC_DESIGN_APPROVAL ( #61, ( #50 ) ) ;
#155 = ORIENTED_EDGE ( 'NONE', *, *, #307, .T. ) ;
#156 = DIRECTION ( 'NONE',  ( -3.491481338843133355E-15, 1.224646799147353207E-16, -1.000000000000000000 ) ) ;
#157 = COORDINATED_UNIVERSAL_TIME_OFFSET ( 1, 0, .AHEAD. ) ;
#158 = AXIS2_PLACEMENT_3D ( 'NONE', #14, #84, #235 ) ;
#159 = PRODUCT ( '41911', '41911', '', ( #138 ) ) ;
#160 = CARTESIAN_POINT ( 'NONE',  ( 4.189777606611760026E-14, 1.087325842429841702E-32, 12.00000000000000000 ) ) ;
#161 = ORIENTED_EDGE ( 'NONE', *, *, #139, .T. ) ;
#162 = LOCAL_TIME ( 9, 22, 18.00000000000000000, #192 ) ;
#163 = PERSON_AND_ORGANIZATION ( #174, #287 ) ;
#164 = CARTESIAN_POINT ( 'NONE',  ( 1.009068104115007235E-13, -1.449999999999997735, 12.00000000000000000 ) ) ;
#165 = CARTESIAN_POINT ( 'NONE',  ( 1.595606971851311880E-13, 1.449999999999994627, 45.69999999999999574 ) ) ;
#166 = CARTESIAN_POINT ( 'NONE',  ( 1.607489759686860634E-13, -1.150000000000006128, 46.00000000000000000 ) ) ;
#167 = CARTESIAN_POINT ( 'NONE',  ( 2.264743470690599250E-14, -1.449999999999997735, 12.00000000000000000 ) ) ;
#168 = CALENDAR_DATE ( 2021, 3, 9 ) ;
#169 = CARTESIAN_POINT ( 'NONE',  ( 1.602436234698468093E-13, -1.150000000000006128, 46.00000000000000000 ) ) ;
#170 = COORDINATED_UNIVERSAL_TIME_OFFSET ( 1, 0, .AHEAD. ) ;
#171 = EDGE_CURVE ( 'NONE', #7, #218, #128, .T. ) ;
#172 = AXIS2_PLACEMENT_3D ( 'NONE', #126, #320, #191 ) ;
#173 = CARTESIAN_POINT ( 'NONE',  ( 1.595606971851311880E-13, -5.596635872103403844E-15, 45.69999999999999574 ) ) ;
#174 = PERSON ( 'UNSPECIFIED', 'UNSPECIFIED', 'UNSPECIFIED', ('UNSPECIFIED'), ('UNSPECIFIED'), ('UNSPECIFIED') ) ;
#175 = CALENDAR_DATE ( 2021, 3, 9 ) ;
#176 = CARTESIAN_POINT ( 'NONE',  ( 1.606081415867841091E-13, -5.633375276077824704E-15, 46.00000000000000000 ) ) ;
#177 = COORDINATED_UNIVERSAL_TIME_OFFSET ( 1, 0, .AHEAD. ) ;
#178 = CARTESIAN_POINT ( 'NONE',  ( 1.775737858763653781E-16, -1.449999999999998179, -1.775737858763665861E-16 ) ) ;
#179 = PERSON_AND_ORGANIZATION ( #174, #287 ) ;
#180 = CARTESIAN_POINT ( 'NONE',  ( 0.0000000000000000000, 0.0000000000000000000, 0.0000000000000000000 ) ) ;
#181 = EDGE_CURVE ( 'NONE', #330, #300, #69, .T. ) ;
#182 = PERSON_AND_ORGANIZATION ( #174, #287 ) ;
#183 = ORIENTED_EDGE ( 'NONE', *, *, #224, .F. ) ;
#184 = AXIS2_PLACEMENT_3D ( 'NONE', #217, #194, #124 ) ;
#185 = CARTESIAN_POINT ( 'NONE',  ( 0.0000000000000000000, 0.0000000000000000000, 0.0000000000000000000 ) ) ;
#186 = APPROVAL_ROLE ( '' ) ;
#187 = FACE_OUTER_BOUND ( 'NONE', #208, .T. ) ;
#188 = DATE_AND_TIME ( #30, #54 ) ;
#189 = CLOSED_SHELL ( 'NONE', ( #268, #256, #305, #278, #271 ) ) ;
#190 = LOCAL_TIME ( 9, 22, 18.00000000000000000, #170 ) ;
#191 = DIRECTION ( 'NONE',  ( 4.275831445896959482E-31, 1.000000000000000000, 1.224646799147353207E-16 ) ) ;
#192 = COORDINATED_UNIVERSAL_TIME_OFFSET ( 1, 0, .AHEAD. ) ;
#193 =( LENGTH_UNIT ( ) NAMED_UNIT ( * ) SI_UNIT ( .MILLI., .METRE. ) );
#194 = DIRECTION ( 'NONE',  ( -3.491481338843133355E-15, 1.224646799147353207E-16, -1.000000000000000000 ) ) ;
#195 = DIRECTION ( 'NONE',  ( 1.903218546456022717E-15, 0.8571673007021097801, 0.5150380749100585964 ) ) ;
#196 = APPROVAL_STATUS ( 'not_yet_approved' ) ;
#197 = ORIENTED_EDGE ( 'NONE', *, *, #106, .F. ) ;
#198 = CARTESIAN_POINT ( 'NONE',  ( 4.189777606611760026E-14, -1.469576158976823947E-15, 12.00000000000000000 ) ) ;
#199 = APPROVAL_DATE_TIME ( #277, #233 ) ;
#200 = DIRECTION ( 'NONE',  ( 0.0000000000000000000, 1.000000000000000000, 0.0000000000000000000 ) ) ;
#201 = APPROVAL_PERSON_ORGANIZATION ( #123, #32, #186 ) ;
#202 = PERSON_AND_ORGANIZATION ( #174, #287 ) ;
#203 = AXIS2_PLACEMENT_3D ( 'NONE', #55, #156, #3 ) ;
#204 = PERSON_AND_ORGANIZATION_ROLE ( 'design_supplier' ) ;
#205 = EDGE_LOOP ( 'NONE', ( #313, #108 ) ) ;
#206 = CARTESIAN_POINT ( 'NONE',  ( 3.041945775941688929E-15, -1.449999999999994627, 0.8712478975899685674 ) ) ;
#207 = VERTEX_POINT ( 'NONE', #19 ) ;
#208 = EDGE_LOOP ( 'NONE', ( #310, #249 ) ) ;
#209 = VECTOR ( 'NONE', #240, 1000.000000000000000 ) ;
#210 = DIRECTION ( 'NONE',  ( -3.491481338843133355E-15, 1.224646799147353207E-16, -1.000000000000000000 ) ) ;
#211 = CARTESIAN_POINT ( 'NONE',  ( 4.189777606611760026E-14, 1.449999999999994627, 12.00000000000000000 ) ) ;
#212 = EDGE_LOOP ( 'NONE', ( #77, #150, #269, #62 ) ) ;
#213 =( GEOMETRIC_REPRESENTATION_CONTEXT ( 3 ) GLOBAL_UNCERTAINTY_ASSIGNED_CONTEXT ( ( #49 ) ) GLOBAL_UNIT_ASSIGNED_CONTEXT ( ( #193, #241, #43 ) ) REPRESENTATION_CONTEXT ( 'NONE', 'WORKASPACE' ) );
#214 = DIRECTION ( 'NONE',  ( 3.491481338843133355E-15, -1.224646799147353207E-16, 1.000000000000000000 ) ) ;
#215 = FACE_OUTER_BOUND ( 'NONE', #212, .T. ) ;
#216 = DIRECTION ( 'NONE',  ( -3.491481338843133355E-15, 1.224646799147353207E-16, -1.000000000000000000 ) ) ;
#217 = CARTESIAN_POINT ( 'NONE',  ( 1.606081415867841091E-13, -5.633375276077824704E-15, 46.00000000000000000 ) ) ;
#218 = VERTEX_POINT ( 'NONE', #167 ) ;
#219 = APPROVAL_STATUS ( 'not_yet_approved' ) ;
#220 = AXIS2_PLACEMENT_3D ( 'NONE', #180, #314, #25 ) ;
#221 = ORIENTED_EDGE ( 'NONE', *, *, #139, .F. ) ;
#222 = CIRCLE ( 'NONE', #122, 1.449999999999994627 ) ;
#223 = DIRECTION ( 'NONE',  ( -3.491481338843133355E-15, 1.224646799147353207E-16, -1.000000000000000000 ) ) ;
#224 = EDGE_CURVE ( 'NONE', #87, #234, #222, .T. ) ;
#225 = ORIENTED_EDGE ( 'NONE', *, *, #230, .T. ) ;
#226 = AXIS2_PLACEMENT_3D ( 'NONE', #198, #257, #76 ) ;
#227 = LOCAL_TIME ( 9, 22, 18.00000000000000000, #177 ) ;
#228 = CARTESIAN_POINT ( 'NONE',  ( 1.606081415867841091E-13, -5.633375276077824704E-15, 46.00000000000000000 ) ) ;
#229 = ORIENTED_EDGE ( 'NONE', *, *, #45, .T. ) ;
#230 = EDGE_CURVE ( 'NONE', #207, #234, #47, .T. ) ;
#231 = DIRECTION ( 'NONE',  ( 1.798245827342160317E-15, -0.8571673007021098911, 0.5150380749100582634 ) ) ;
#232 = DIRECTION ( 'NONE',  ( 0.0000000000000000000, 1.000000000000000000, 0.0000000000000000000 ) ) ;
#233 = APPROVAL ( #78, 'UNSPECIFIED' ) ;
#234 = VERTEX_POINT ( 'NONE', #206 ) ;
#235 = DIRECTION ( 'NONE',  ( 4.275831445896959482E-31, 1.000000000000000000, 1.224646799147353207E-16 ) ) ;
#236 = VECTOR ( 'NONE', #195, 999.9999999999998863 ) ;
#237 = EDGE_LOOP ( 'NONE', ( #52, #98, #24, #221 ) ) ;
#238 = CC_DESIGN_SECURITY_CLASSIFICATION ( #298, ( #294 ) ) ;
#239 = CYLINDRICAL_SURFACE ( 'NONE', #283, 1.449999999999995515 ) ;
#240 = DIRECTION ( 'NONE',  ( -3.491481338843133355E-15, 1.224646799147353207E-16, -1.000000000000000000 ) ) ;
#241 =( NAMED_UNIT ( * ) PLANE_ANGLE_UNIT ( ) SI_UNIT ( $, .RADIAN. ) );
#242 = ORIENTED_EDGE ( 'NONE', *, *, #318, .T. ) ;
#243 = FACE_OUTER_BOUND ( 'NONE', #140, .T. ) ;
#244 = DATE_AND_TIME ( #66, #162 ) ;
#245 = ADVANCED_FACE ( 'NONE', ( #311 ), #259, .T. ) ;
#246 = DIRECTION ( 'NONE',  ( 5.312910191413083962E-31, 1.000000000000000000, 1.495451272393804719E-16 ) ) ;
#247 = CONICAL_SURFACE ( 'NONE', #262, 1.449999999999994627, 1.029744258676649649 ) ;
#248 = DIRECTION ( 'NONE',  ( 3.491481338843133355E-15, -1.224646799147353207E-16, 1.000000000000000000 ) ) ;
#249 = ORIENTED_EDGE ( 'NONE', *, *, #143, .T. ) ;
#250 = DIRECTION ( 'NONE',  ( -2.468850131082271655E-15, 0.7071067811865455743, -0.7071067811865493491 ) ) ;
#251 = COORDINATED_UNIVERSAL_TIME_OFFSET ( 1, 0, .AHEAD. ) ;
#252 = DIRECTION ( 'NONE',  ( 4.275831445896958607E-31, 1.000000000000000000, 1.224646799147353207E-16 ) ) ;
#253 = CONICAL_SURFACE ( 'NONE', #114, 1.150000000000000355, 0.7853981633974453924 ) ;
#254 = ORIENTED_EDGE ( 'NONE', *, *, #88, .T. ) ;
#255 = AXIS2_PLACEMENT_3D ( 'NONE', #5, #81, #63 ) ;
#256 = ADVANCED_FACE ( 'NONE', ( #89 ), #247, .T. ) ;
#257 = DIRECTION ( 'NONE',  ( -3.491481338843133355E-15, 1.224646799147353207E-16, -1.000000000000000000 ) ) ;
#258 = DIRECTION ( 'NONE',  ( -3.491481338843133355E-15, 1.224646799147353207E-16, -1.000000000000000000 ) ) ;
#259 = CYLINDRICAL_SURFACE ( 'NONE', #172, 1.449999999999998179 ) ;
#260 = ORIENTED_EDGE ( 'NONE', *, *, #106, .T. ) ;
#261 = CIRCLE ( 'NONE', #203, 1.449999999999996181 ) ;
#262 = AXIS2_PLACEMENT_3D ( 'NONE', #35, #111, #291 ) ;
#263 = ORIENTED_EDGE ( 'NONE', *, *, #318, .F. ) ;
#264 = CC_DESIGN_DATE_AND_TIME_ASSIGNMENT ( #244, #297, ( #50 ) ) ;
#265 = AXIS2_PLACEMENT_3D ( 'NONE', #329, #248, #116 ) ;
#266 = APPLICATION_CONTEXT ( 'configuration controlled 3d designs of mechanical parts and assemblies' ) ;
#267 = CARTESIAN_POINT ( 'NONE',  ( 4.189777606611760026E-14, 1.449999999999994627, 12.00000000000000000 ) ) ;
#268 = ADVANCED_FACE ( 'NONE', ( #272 ), #34, .T. ) ;
#269 = ORIENTED_EDGE ( 'NONE', *, *, #9, .F. ) ;
#270 = AXIS2_PLACEMENT_3D ( 'NONE', #40, #216, #200 ) ;
#271 = ADVANCED_FACE ( 'NONE', ( #39 ), #113, .T. ) ;
#272 = FACE_OUTER_BOUND ( 'NONE', #64, .T. ) ;
#273 = DIRECTION ( 'NONE',  ( -3.491481338843133355E-15, 1.224646799147353207E-16, -1.000000000000000000 ) ) ;
#274 = CIRCLE ( 'NONE', #226, 1.449999999999996181 ) ;
#275 = CARTESIAN_POINT ( 'NONE',  ( 1.606081415867841091E-13, -5.633375276077824704E-15, 46.00000000000000000 ) ) ;
#276 = CARTESIAN_POINT ( 'NONE',  ( 6.199955596550571500E-31, 1.449999999999995515, 1.775737858763656739E-16 ) ) ;
#277 = DATE_AND_TIME ( #175, #190 ) ;
#278 = ADVANCED_FACE ( 'NONE', ( #137 ), #239, .T. ) ;
#279 = DIRECTION ( 'NONE',  ( 5.312910191413083962E-31, 1.000000000000000000, 1.495451272393804719E-16 ) ) ;
#280 = CARTESIAN_POINT ( 'NONE',  ( 3.219519561818055762E-15, 1.449999999999994627, 0.8712478975899690115 ) ) ;
#281 = ORIENTED_EDGE ( 'NONE', *, *, #79, .T. ) ;
#282 = ADVANCED_BREP_SHAPE_REPRESENTATION ( '41911', ( #59, #51, #37 ), #213 ) ;
#283 = AXIS2_PLACEMENT_3D ( 'NONE', #185, #210, #317 ) ;
#284 = CALENDAR_DATE ( 2021, 3, 9 ) ;
#285 = CARTESIAN_POINT ( 'NONE',  ( 3.219519561818055762E-15, 1.449999999999994627, 0.8712478975899690115 ) ) ;
#286 = LINE ( 'NONE', #96, #153 ) ;
#287 = ORGANIZATION ( 'UNSPECIFIED', 'UNSPECIFIED', '' ) ;
#288 = LINE ( 'NONE', #285, #236 ) ;
#289 = EDGE_LOOP ( 'NONE', ( #197, #225, #324 ) ) ;
#290 = CARTESIAN_POINT ( 'NONE',  ( 3.041945775941689718E-15, -1.066970949047416252E-16, 0.8712478975899687894 ) ) ;
#291 = DIRECTION ( 'NONE',  ( -5.312910191413083962E-31, -1.000000000000000000, -1.495451272393804719E-16 ) ) ;
#292 = ADVANCED_FACE ( 'NONE', ( #243 ), #11, .T. ) ;
#293 = ORIENTED_EDGE ( 'NONE', *, *, #143, .F. ) ;
#294 = PRODUCT_DEFINITION_FORMATION_WITH_SPECIFIED_SOURCE ( 'ANY', '', #159, .NOT_KNOWN. ) ;
#295 = APPLICATION_PROTOCOL_DEFINITION ( 'international standard', 'config_control_design', 1994, #135 ) ;
#296 = CC_DESIGN_PERSON_AND_ORGANIZATION_ASSIGNMENT ( #202, #107, ( #159 ) ) ;
#297 = DATE_TIME_ROLE ( 'creation_date' ) ;
#298 = SECURITY_CLASSIFICATION ( '', '', #80 ) ;
#299 = ORIENTED_EDGE ( 'NONE', *, *, #171, .F. ) ;
#300 = VERTEX_POINT ( 'NONE', #165 ) ;
#301 = CARTESIAN_POINT ( 'NONE',  ( 3.041945775941689718E-15, -1.066970949047416252E-16, 0.8712478975899687894 ) ) ;
#302 = AXIS2_PLACEMENT_3D ( 'NONE', #102, #152, #232 ) ;
#303 = PRODUCT_RELATED_PRODUCT_CATEGORY ( 'detail', '', ( #159 ) ) ;
#304 = PERSON_AND_ORGANIZATION ( #174, #287 ) ;
#305 = ADVANCED_FACE ( 'NONE', ( #42 ), #322, .T. ) ;
#306 = AXIS2_PLACEMENT_3D ( 'NONE', #120, #327, #252 ) ;
#307 = EDGE_CURVE ( 'NONE', #316, #112, #68, .T. ) ;
#308 = LINE ( 'NONE', #178, #109 ) ;
#309 = PERSON_AND_ORGANIZATION ( #174, #287 ) ;
#310 = ORIENTED_EDGE ( 'NONE', *, *, #9, .T. ) ;
#311 = FACE_OUTER_BOUND ( 'NONE', #117, .T. ) ;
#312 = DIRECTION ( 'NONE',  ( 3.491481338843133355E-15, -1.224646799147353207E-16, 1.000000000000000000 ) ) ;
#313 = ORIENTED_EDGE ( 'NONE', *, *, #88, .F. ) ;
#314 = DIRECTION ( 'NONE',  ( -3.491481338843133355E-15, 1.224646799147353207E-16, -1.000000000000000000 ) ) ;
#315 = AXIS2_PLACEMENT_3D ( 'NONE', #290, #273, #246 ) ;
#316 = VERTEX_POINT ( 'NONE', #169 ) ;
#317 = DIRECTION ( 'NONE',  ( 4.275831445896959482E-31, 1.000000000000000000, 1.224646799147353207E-16 ) ) ;
#318 = EDGE_CURVE ( 'NONE', #7, #87, #44, .T. ) ;
#319 = CARTESIAN_POINT ( 'NONE',  ( 0.0000000000000000000, 0.0000000000000000000, 0.0000000000000000000 ) ) ;
#320 = DIRECTION ( 'NONE',  ( -3.491481338843133355E-15, 1.224646799147353207E-16, -1.000000000000000000 ) ) ;
#321 = LINE ( 'NONE', #323, #209 ) ;
#322 = CONICAL_SURFACE ( 'NONE', #265, 1.449999999999994627, 1.029744258676649649 ) ;
#323 = CARTESIAN_POINT ( 'NONE',  ( 6.199955596550582885E-31, 1.449999999999998179, 1.775737858763659944E-16 ) ) ;
#324 = ORIENTED_EDGE ( 'NONE', *, *, #18, .T. ) ;
#325 = SHAPE_DEFINITION_REPRESENTATION ( #136, #282 ) ;
#326 = VECTOR ( 'NONE', #223, 1000.000000000000000 ) ;
#327 = DIRECTION ( 'NONE',  ( -3.491481338843133355E-15, 1.224646799147353207E-16, -1.000000000000000000 ) ) ;
#328 = ADVANCED_FACE ( 'NONE', ( #46 ), #72, .F. ) ;
#329 = CARTESIAN_POINT ( 'NONE',  ( 3.041945775941689718E-15, -1.066970949047416252E-16, 0.8712478975899687894 ) ) ;
#330 = VERTEX_POINT ( 'NONE', #75 ) ;
#331 = ADVANCED_FACE ( 'NONE', ( #187 ), #23, .F. ) ;
#332 = ORIENTED_EDGE ( 'NONE', *, *, #95, .F. ) ;
#333 = CARTESIAN_POINT ( 'NONE',  ( 1.606081415867841091E-13, 1.149999999999994804, 46.00000000000000000 ) ) ;
#334 = DIRECTION ( 'NONE',  ( -3.491481338843133355E-15, 1.224646799147353207E-16, -1.000000000000000000 ) ) ;
#335 = AXIS2_PLACEMENT_3D ( 'NONE', #141, #214, #85 ) ;
#336 = DIRECTION ( 'NONE',  ( -3.491481338843133355E-15, 1.224646799147353207E-16, -1.000000000000000000 ) ) ;
#337 = CYLINDRICAL_SURFACE ( 'NONE', #220, 1.449999999999998179 ) ;
ENDSEC;
END-ISO-10303-21;
