ISO-10303-21;
HEADER;
FILE_DESCRIPTION (( 'STEP AP203' ),
    '1' );
FILE_NAME ('41910.step',
    '2021-11-01T10:35:13',
    ( '' ),
    ( '' ),
    'SwSTEP 2.0',
    'SolidWorks 2019',
    '' );
FILE_SCHEMA (( 'CONFIG_CONTROL_DESIGN' ));
ENDSEC;

DATA;
#1 = EDGE_CURVE ( 'NONE', #86, #86, #7, .T. ) ;
#2 = LOCAL_TIME ( 11, 35, 13.00000000000000000, #134 ) ;
#3 = DIRECTION ( 'NONE',  ( -4.342506852882607869E-31, -1.000000000000000000, -1.227517819005651059E-16 ) ) ;
#4 = APPROVAL_ROLE ( '' ) ;
#5 = EDGE_CURVE ( 'NONE', #57, #57, #223, .T. ) ;
#6 = EDGE_LOOP ( 'NONE', ( #112 ) ) ;
#7 = CIRCLE ( 'NONE', #152, 2.750000000000000444 ) ;
#8 =( GEOMETRIC_REPRESENTATION_CONTEXT ( 3 ) GLOBAL_UNCERTAINTY_ASSIGNED_CONTEXT ( ( #187 ) ) GLOBAL_UNIT_ASSIGNED_CONTEXT ( ( #83, #169, #18 ) ) REPRESENTATION_CONTEXT ( 'NONE', 'WORKASPACE' ) );
#9 = PERSON_AND_ORGANIZATION ( #71, #182 ) ;
#10 = ORIENTED_EDGE ( 'NONE', *, *, #123, .F. ) ;
#11 = CARTESIAN_POINT ( 'NONE',  ( 3.491481338843132724E-14, -1.227517819005650763E-15, 9.999999999999998224 ) ) ;
#12 = EDGE_LOOP ( 'NONE', ( #10 ) ) ;
#13 = DIRECTION ( 'NONE',  ( 0.0000000000000000000, -1.000000000000000000, 0.0000000000000000000 ) ) ;
#14 = CC_DESIGN_PERSON_AND_ORGANIZATION_ASSIGNMENT ( #135, #212, ( #196 ) ) ;
#15 = FACE_OUTER_BOUND ( 'NONE', #73, .T. ) ;
#16 = ADVANCED_FACE ( 'NONE', ( #179, #167 ), #51, .T. ) ;
#17 = FACE_OUTER_BOUND ( 'NONE', #161, .T. ) ;
#18 =( NAMED_UNIT ( * ) SI_UNIT ( $, .STERADIAN. ) SOLID_ANGLE_UNIT ( ) );
#19 = APPLICATION_PROTOCOL_DEFINITION ( 'international standard', 'config_control_design', 1994, #72 ) ;
#20 = DESIGN_CONTEXT ( 'detailed design', #72, 'design' ) ;
#21 = CARTESIAN_POINT ( 'NONE',  ( 3.491481338843132724E-14, -2.750000000000001776, 9.999999999999998224 ) ) ;
#22 = EDGE_CURVE ( 'NONE', #23, #23, #213, .T. ) ;
#23 = VERTEX_POINT ( 'NONE', #41 ) ;
#24 = PLANE ( 'NONE',  #55 ) ;
#25 = EDGE_CURVE ( 'NONE', #82, #82, #124, .T. ) ;
#26 = PERSON_AND_ORGANIZATION ( #71, #182 ) ;
#27 = DATE_AND_TIME ( #90, #65 ) ;
#28 = ORIENTED_EDGE ( 'NONE', *, *, #25, .T. ) ;
#29 = CIRCLE ( 'NONE', #194, 3.000000000000000000 ) ;
#30 = DIRECTION ( 'NONE',  ( 0.0000000000000000000, 1.000000000000000000, 0.0000000000000000000 ) ) ;
#31 = DIRECTION ( 'NONE',  ( 0.0000000000000000000, 1.000000000000000000, 0.0000000000000000000 ) ) ;
#32 = APPLICATION_CONTEXT ( 'configuration controlled 3d designs of mechanical parts and assemblies' ) ;
#33 = PRODUCT ( '41910', '41910', '', ( #148 ) ) ;
#34 = DIRECTION ( 'NONE',  ( 3.491481338843133355E-15, -1.227517819005651059E-16, 1.000000000000000000 ) ) ;
#35 = PLANE ( 'NONE',  #45 ) ;
#36 = APPROVAL_PERSON_ORGANIZATION ( #117, #185, #118 ) ;
#37 = CARTESIAN_POINT ( 'NONE',  ( 1.976178437785213605E-13, -6.931500883174019483E-15, 56.60000000000000142 ) ) ;
#38 = COORDINATED_UNIVERSAL_TIME_OFFSET ( 1, 0, .AHEAD. ) ;
#39 = AXIS2_PLACEMENT_3D ( 'NONE', #80, #34, #164 ) ;
#40 = SECURITY_CLASSIFICATION ( '', '', #111 ) ;
#41 = CARTESIAN_POINT ( 'NONE',  ( 1.976178437785213605E-13, 2.999999999999995559, 56.60000000000000142 ) ) ;
#42 = ORIENTED_EDGE ( 'NONE', *, *, #141, .T. ) ;
#43 = PERSON_AND_ORGANIZATION ( #71, #182 ) ;
#44 = ORIENTED_EDGE ( 'NONE', *, *, #1, .F. ) ;
#45 = AXIS2_PLACEMENT_3D ( 'NONE', #50, #181, #180 ) ;
#46 = PERSON_AND_ORGANIZATION_ROLE ( 'classification_officer' ) ;
#47 = EDGE_LOOP ( 'NONE', ( #42 ) ) ;
#48 = FACE_OUTER_BOUND ( 'NONE', #176, .T. ) ;
#49 = FACE_OUTER_BOUND ( 'NONE', #215, .T. ) ;
#50 = CARTESIAN_POINT ( 'NONE',  ( 3.491481338843133355E-14, 2.249639673992782306E-32, 10.00000000000000000 ) ) ;
#51 = CYLINDRICAL_SURFACE ( 'NONE', #204, 3.000000000000000000 ) ;
#52 = APPROVAL_STATUS ( 'not_yet_approved' ) ;
#53 = ADVANCED_FACE ( 'NONE', ( #76 ), #79, .F. ) ;
#54 = CARTESIAN_POINT ( 'NONE',  ( 3.491481338843132724E-14, -2.750000000000001776, 9.999999999999998224 ) ) ;
#55 = AXIS2_PLACEMENT_3D ( 'NONE', #190, #184, #66 ) ;
#56 = VERTEX_POINT ( 'NONE', #188 ) ;
#57 = VERTEX_POINT ( 'NONE', #54 ) ;
#58 = CALENDAR_DATE ( 2021, 1, 11 ) ;
#59 = CC_DESIGN_APPROVAL ( #192, ( #40 ) ) ;
#60 = AXIS2_PLACEMENT_3D ( 'NONE', #220, #199, #81 ) ;
#61 = CC_DESIGN_APPROVAL ( #185, ( #120 ) ) ;
#62 = FACE_OUTER_BOUND ( 'NONE', #155, .T. ) ;
#63 = FACE_BOUND ( 'NONE', #47, .T. ) ;
#64 = CARTESIAN_POINT ( 'NONE',  ( -6.413731847436034514E-31, 0.0000000000000000000, -1.836965810494968570E-16 ) ) ;
#65 = LOCAL_TIME ( 11, 35, 13.00000000000000000, #177 ) ;
#66 = DIRECTION ( 'NONE',  ( -4.275831445896958607E-31, -1.000000000000000000, -1.224646799147353207E-16 ) ) ;
#67 = CARTESIAN_POINT ( 'NONE',  ( 4.184300688578264356E-14, 2.999999999999997780, 11.98431348329843793 ) ) ;
#68 = LOCAL_TIME ( 11, 35, 13.00000000000000000, #209 ) ;
#69 = DATE_AND_TIME ( #211, #68 ) ;
#70 = APPROVAL_DATE_TIME ( #69, #189 ) ;
#71 = PERSON ( 'UNSPECIFIED', 'UNSPECIFIED', 'UNSPECIFIED', ('UNSPECIFIED'), ('UNSPECIFIED'), ('UNSPECIFIED') ) ;
#72 = APPLICATION_CONTEXT ( 'configuration controlled 3d designs of mechanical parts and assemblies' ) ;
#73 = EDGE_LOOP ( 'NONE', ( #88 ) ) ;
#74 = ORIENTED_EDGE ( 'NONE', *, *, #141, .F. ) ;
#75 = PRODUCT_RELATED_PRODUCT_CATEGORY ( 'detail', '', ( #33 ) ) ;
#76 = FACE_OUTER_BOUND ( 'NONE', #197, .T. ) ;
#77 = PRODUCT_DEFINITION_SHAPE ( 'NONE', 'NONE',  #196 ) ;
#78 = CC_DESIGN_PERSON_AND_ORGANIZATION_ASSIGNMENT ( #26, #46, ( #40 ) ) ;
#79 = PLANE ( 'NONE',  #156 ) ;
#80 = CARTESIAN_POINT ( 'NONE',  ( -1.178610278492804477E-30, 1.888791723648340263E-32, -3.375674002265539548E-16 ) ) ;
#81 = DIRECTION ( 'NONE',  ( -4.275831445896958607E-31, -1.000000000000000000, -1.224646799147353207E-16 ) ) ;
#82 = VERTEX_POINT ( 'NONE', #151 ) ;
#83 =( LENGTH_UNIT ( ) NAMED_UNIT ( * ) SI_UNIT ( .MILLI., .METRE. ) );
#84 = VERTEX_POINT ( 'NONE', #67 ) ;
#85 = LOCAL_TIME ( 11, 35, 13.00000000000000000, #91 ) ;
#86 = VERTEX_POINT ( 'NONE', #21 ) ;
#87 = APPROVAL_ROLE ( '' ) ;
#88 = ORIENTED_EDGE ( 'NONE', *, *, #123, .T. ) ;
#89 = CC_DESIGN_DATE_AND_TIME_ASSIGNMENT ( #99, #98, ( #196 ) ) ;
#90 = CALENDAR_DATE ( 2021, 1, 11 ) ;
#91 = COORDINATED_UNIVERSAL_TIME_OFFSET ( 1, 0, .AHEAD. ) ;
#92 = CLOSED_SHELL ( 'NONE', ( #16, #131, #53, #145, #115 ) ) ;
#93 = FACE_OUTER_BOUND ( 'NONE', #158, .T. ) ;
#94 = ADVANCED_FACE ( 'NONE', ( #114 ), #35, .T. ) ;
#95 = CLOSED_SHELL ( 'NONE', ( #94, #108, #222 ) ) ;
#96 = DIRECTION ( 'NONE',  ( 4.275831445896958607E-31, 1.000000000000000000, 1.224646799147353207E-16 ) ) ;
#97 = CARTESIAN_POINT ( 'NONE',  ( 1.990144363140586139E-13, 1.949687717460406406E-32, 57.00000000000000000 ) ) ;
#98 = DATE_TIME_ROLE ( 'creation_date' ) ;
#99 = DATE_AND_TIME ( #58, #2 ) ;
#100 = AXIS2_PLACEMENT_3D ( 'NONE', #113, #163, #31 ) ;
#101 = PERSON_AND_ORGANIZATION ( #71, #182 ) ;
#102 = SHAPE_DEFINITION_REPRESENTATION ( #77, #149 ) ;
#103 = CC_DESIGN_PERSON_AND_ORGANIZATION_ASSIGNMENT ( #9, #159, ( #120 ) ) ;
#104 = APPROVAL_STATUS ( 'not_yet_approved' ) ;
#105 = ORIENTED_EDGE ( 'NONE', *, *, #5, .T. ) ;
#106 = CALENDAR_DATE ( 2021, 1, 11 ) ;
#107 = ORIENTED_EDGE ( 'NONE', *, *, #22, .F. ) ;
#108 = ADVANCED_FACE ( 'NONE', ( #17, #49 ), #221, .T. ) ;
#109 = MANIFOLD_SOLID_BREP ( 'Corps-Déplacer/Copier1[2]', #95 ) ;
#110 = MANIFOLD_SOLID_BREP ( 'Corps-Déplacer/Copier1[1]', #92 ) ;
#111 = SECURITY_CLASSIFICATION_LEVEL ( 'unclassified' ) ;
#112 = ORIENTED_EDGE ( 'NONE', *, *, #22, .T. ) ;
#113 = CARTESIAN_POINT ( 'NONE',  ( 1.990144363140586139E-13, -6.980486755139912911E-15, 57.00000000000000000 ) ) ;
#114 = FACE_OUTER_BOUND ( 'NONE', #174, .T. ) ;
#115 = ADVANCED_FACE ( 'NONE', ( #116 ), #218, .F. ) ;
#116 = FACE_OUTER_BOUND ( 'NONE', #195, .T. ) ;
#117 = PERSON_AND_ORGANIZATION ( #71, #182 ) ;
#118 = APPROVAL_ROLE ( '' ) ;
#119 = CALENDAR_DATE ( 2021, 1, 11 ) ;
#120 = PRODUCT_DEFINITION_FORMATION_WITH_SPECIFIED_SOURCE ( 'ANY', '', #33, .NOT_KNOWN. ) ;
#121 = ORIENTED_EDGE ( 'NONE', *, *, #5, .F. ) ;
#122 = DIRECTION ( 'NONE',  ( -3.491481338843133355E-15, 1.224646799147353207E-16, -1.000000000000000000 ) ) ;
#123 = EDGE_CURVE ( 'NONE', #84, #84, #29, .T. ) ;
#124 = CIRCLE ( 'NONE', #39, 2.749999999999999112 ) ;
#125 = AXIS2_PLACEMENT_3D ( 'NONE', #129, #206, #30 ) ;
#126 = CARTESIAN_POINT ( 'NONE',  ( 3.491481338843132724E-14, -1.734723475976807094E-15, 9.999999999999998224 ) ) ;
#127 = DIRECTION ( 'NONE',  ( 3.491481338843133355E-15, -1.227517819005651059E-16, 1.000000000000000000 ) ) ;
#128 = DIRECTION ( 'NONE',  ( -3.491481338843133355E-15, 1.227517819005651059E-16, -1.000000000000000000 ) ) ;
#129 = CARTESIAN_POINT ( 'NONE',  ( 1.990144363140586139E-13, -6.980486755139912911E-15, 57.00000000000000000 ) ) ;
#130 = PERSON_AND_ORGANIZATION ( #71, #182 ) ;
#131 = ADVANCED_FACE ( 'NONE', ( #48, #63 ), #175, .T. ) ;
#132 = CARTESIAN_POINT ( 'NONE',  ( 0.0000000000000000000, 0.0000000000000000000, 0.0000000000000000000 ) ) ;
#133 = AXIS2_PLACEMENT_3D ( 'NONE', #126, #201, #3 ) ;
#134 = COORDINATED_UNIVERSAL_TIME_OFFSET ( 1, 0, .AHEAD. ) ;
#135 = PERSON_AND_ORGANIZATION ( #71, #182 ) ;
#136 = DATE_TIME_ROLE ( 'classification_date' ) ;
#137 = APPROVAL_PERSON_ORGANIZATION ( #43, #192, #87 ) ;
#138 = CC_DESIGN_PERSON_AND_ORGANIZATION_ASSIGNMENT ( #191, #173, ( #120 ) ) ;
#139 = DIRECTION ( 'NONE',  ( 3.491481338843133355E-15, -1.227517819005651059E-16, 1.000000000000000000 ) ) ;
#140 = AXIS2_PLACEMENT_3D ( 'NONE', #166, #127, #13 ) ;
#141 = EDGE_CURVE ( 'NONE', #56, #56, #168, .T. ) ;
#142 = DIRECTION ( 'NONE',  ( 3.491481338843133355E-15, -1.227517819005651059E-16, 1.000000000000000000 ) ) ;
#143 = DIRECTION ( 'NONE',  ( 0.0000000000000000000, 1.000000000000000000, 0.0000000000000000000 ) ) ;
#144 = DIRECTION ( 'NONE',  ( -4.285855558155653280E-31, -1.000000000000000000, -1.227517819005650812E-16 ) ) ;
#145 = ADVANCED_FACE ( 'NONE', ( #93, #15 ), #154, .F. ) ;
#146 = CARTESIAN_POINT ( 'NONE',  ( 0.0000000000000000000, 0.0000000000000000000, 0.0000000000000000000 ) ) ;
#147 = CARTESIAN_POINT ( 'NONE',  ( 4.184300688578264356E-14, -1.978301491901008002E-15, 11.98431348329843793 ) ) ;
#148 = MECHANICAL_CONTEXT ( 'NONE', #32, 'mechanical' ) ;
#149 = ADVANCED_BREP_SHAPE_REPRESENTATION ( '41910', ( #110, #109, #165 ), #8 ) ;
#150 = PERSON_AND_ORGANIZATION_ROLE ( 'design_owner' ) ;
#151 = CARTESIAN_POINT ( 'NONE',  ( -2.357220556985608603E-30, -2.749999999999999112, -6.751348004531079097E-16 ) ) ;
#152 = AXIS2_PLACEMENT_3D ( 'NONE', #11, #139, #216 ) ;
#153 = DIRECTION ( 'NONE',  ( 1.000000000000000000, 0.0000000000000000000, 0.0000000000000000000 ) ) ;
#154 = TOROIDAL_SURFACE ( 'NONE', #133, 10.75000000000000000, 8.000000000000000000 ) ;
#155 = EDGE_LOOP ( 'NONE', ( #160 ) ) ;
#156 = AXIS2_PLACEMENT_3D ( 'NONE', #97, #219, #96 ) ;
#157 = LOCAL_TIME ( 11, 35, 13.00000000000000000, #38 ) ;
#158 = EDGE_LOOP ( 'NONE', ( #198 ) ) ;
#159 = PERSON_AND_ORGANIZATION_ROLE ( 'creator' ) ;
#160 = ORIENTED_EDGE ( 'NONE', *, *, #25, .F. ) ;
#161 = EDGE_LOOP ( 'NONE', ( #28 ) ) ;
#162 = APPROVAL_DATE_TIME ( #193, #185 ) ;
#163 = DIRECTION ( 'NONE',  ( -3.491481338843133355E-15, 1.224646799147353207E-16, -1.000000000000000000 ) ) ;
#164 = DIRECTION ( 'NONE',  ( -4.285855558155652404E-31, -1.000000000000000000, -1.227517819005651059E-16 ) ) ;
#165 = AXIS2_PLACEMENT_3D ( 'NONE', #132, #208, #153 ) ;
#166 = CARTESIAN_POINT ( 'NONE',  ( 3.491481338843132724E-14, -1.227517819005650763E-15, 9.999999999999998224 ) ) ;
#167 = FACE_OUTER_BOUND ( 'NONE', #12, .T. ) ;
#168 = CIRCLE ( 'NONE', #100, 2.600000000000002309 ) ;
#169 =( NAMED_UNIT ( * ) PLANE_ANGLE_UNIT ( ) SI_UNIT ( $, .RADIAN. ) );
#170 = APPLICATION_PROTOCOL_DEFINITION ( 'international standard', 'config_control_design', 1994, #32 ) ;
#171 = AXIS2_PLACEMENT_3D ( 'NONE', #64, #142, #144 ) ;
#172 = DATE_AND_TIME ( #106, #85 ) ;
#173 = PERSON_AND_ORGANIZATION_ROLE ( 'design_supplier' ) ;
#174 = EDGE_LOOP ( 'NONE', ( #105 ) ) ;
#175 = CONICAL_SURFACE ( 'NONE', #125, 2.600000000000002309, 0.7853981633974516097 ) ;
#176 = EDGE_LOOP ( 'NONE', ( #107 ) ) ;
#177 = COORDINATED_UNIVERSAL_TIME_OFFSET ( 1, 0, .AHEAD. ) ;
#178 = CC_DESIGN_PERSON_AND_ORGANIZATION_ASSIGNMENT ( #130, #150, ( #33 ) ) ;
#179 = FACE_OUTER_BOUND ( 'NONE', #6, .T. ) ;
#180 = DIRECTION ( 'NONE',  ( -4.275831445896958607E-31, -1.000000000000000000, -1.224646799147353207E-16 ) ) ;
#181 = DIRECTION ( 'NONE',  ( 3.491481338843133355E-15, -1.224646799147353207E-16, 1.000000000000000000 ) ) ;
#182 = ORGANIZATION ( 'UNSPECIFIED', 'UNSPECIFIED', '' ) ;
#183 = DIRECTION ( 'NONE',  ( 4.275831445896959482E-31, 1.000000000000000000, 1.224646799147353207E-16 ) ) ;
#184 = DIRECTION ( 'NONE',  ( 3.491481338843133355E-15, -1.224646799147353207E-16, 1.000000000000000000 ) ) ;
#185 = APPROVAL ( #186, 'UNSPECIFIED' ) ;
#186 = APPROVAL_STATUS ( 'not_yet_approved' ) ;
#187 = UNCERTAINTY_MEASURE_WITH_UNIT (LENGTH_MEASURE( 1.000000000000000082E-05 ), #83, 'distance_accuracy_value', 'NONE');
#188 = CARTESIAN_POINT ( 'NONE',  ( 1.990144363140586139E-13, 2.599999999999995648, 57.00000000000000000 ) ) ;
#189 = APPROVAL ( #52, 'UNSPECIFIED' ) ;
#190 = CARTESIAN_POINT ( 'NONE',  ( -3.206816838010677856E-31, 1.124799933034399755E-32, -9.184688465421452921E-17 ) ) ;
#191 = PERSON_AND_ORGANIZATION ( #71, #182 ) ;
#192 = APPROVAL ( #104, 'UNSPECIFIED' ) ;
#193 = DATE_AND_TIME ( #119, #157 ) ;
#194 = AXIS2_PLACEMENT_3D ( 'NONE', #147, #128, #203 ) ;
#195 = EDGE_LOOP ( 'NONE', ( #44 ) ) ;
#196 = PRODUCT_DEFINITION ( 'UNKNOWN', '', #120, #20 ) ;
#197 = EDGE_LOOP ( 'NONE', ( #74 ) ) ;
#198 = ORIENTED_EDGE ( 'NONE', *, *, #1, .T. ) ;
#199 = DIRECTION ( 'NONE',  ( 3.491481338843133355E-15, -1.224646799147353207E-16, 1.000000000000000000 ) ) ;
#200 = AXIS2_PLACEMENT_3D ( 'NONE', #37, #122, #143 ) ;
#201 = DIRECTION ( 'NONE',  ( 3.491481338843133355E-15, -1.227517819005651059E-16, 1.000000000000000000 ) ) ;
#202 = DIRECTION ( 'NONE',  ( -3.491481338843133355E-15, 1.224646799147353207E-16, -1.000000000000000000 ) ) ;
#203 = DIRECTION ( 'NONE',  ( 0.0000000000000000000, 1.000000000000000000, 0.0000000000000000000 ) ) ;
#204 = AXIS2_PLACEMENT_3D ( 'NONE', #146, #202, #183 ) ;
#205 = CC_DESIGN_APPROVAL ( #189, ( #196 ) ) ;
#206 = DIRECTION ( 'NONE',  ( -3.491481338843133355E-15, 1.224646799147353207E-16, -1.000000000000000000 ) ) ;
#207 = CC_DESIGN_DATE_AND_TIME_ASSIGNMENT ( #27, #136, ( #40 ) ) ;
#208 = DIRECTION ( 'NONE',  ( 0.0000000000000000000, 0.0000000000000000000, 1.000000000000000000 ) ) ;
#209 = COORDINATED_UNIVERSAL_TIME_OFFSET ( 1, 0, .AHEAD. ) ;
#210 = APPROVAL_PERSON_ORGANIZATION ( #101, #189, #4 ) ;
#211 = CALENDAR_DATE ( 2021, 1, 11 ) ;
#212 = PERSON_AND_ORGANIZATION_ROLE ( 'creator' ) ;
#213 = CIRCLE ( 'NONE', #200, 3.000000000000002665 ) ;
#214 = APPROVAL_DATE_TIME ( #172, #192 ) ;
#215 = EDGE_LOOP ( 'NONE', ( #121 ) ) ;
#216 = DIRECTION ( 'NONE',  ( 0.0000000000000000000, -1.000000000000000000, 0.0000000000000000000 ) ) ;
#217 = CC_DESIGN_SECURITY_CLASSIFICATION ( #40, ( #120 ) ) ;
#218 = PLANE ( 'NONE',  #60 ) ;
#219 = DIRECTION ( 'NONE',  ( -3.491481338843133355E-15, 1.224646799147353207E-16, -1.000000000000000000 ) ) ;
#220 = CARTESIAN_POINT ( 'NONE',  ( 3.491481338843133355E-14, 2.249639673992782306E-32, 10.00000000000000000 ) ) ;
#221 = CYLINDRICAL_SURFACE ( 'NONE', #171, 2.750000000000000000 ) ;
#222 = ADVANCED_FACE ( 'NONE', ( #62 ), #24, .F. ) ;
#223 = CIRCLE ( 'NONE', #140, 2.750000000000000444 ) ;
ENDSEC;
END-ISO-10303-21;
