ISO-10303-21;
HEADER;
FILE_DESCRIPTION (( 'STEP AP203' ),
    '1' );
FILE_NAME ('41909.step',
    '2021-11-01T10:35:12',
    ( '' ),
    ( '' ),
    'SwSTEP 2.0',
    'SolidWorks 2019',
    '' );
FILE_SCHEMA (( 'CONFIG_CONTROL_DESIGN' ));
ENDSEC;

DATA;
#1 = DIRECTION ( 'NONE',  ( -3.491481338843133355E-15, 1.224646799147353207E-16, -1.000000000000000000 ) ) ;
#2 = CC_DESIGN_PERSON_AND_ORGANIZATION_ASSIGNMENT ( #183, #93, ( #12 ) ) ;
#3 = CYLINDRICAL_SURFACE ( 'NONE', #142, 1.499999999999995781 ) ;
#4 = DIRECTION ( 'NONE',  ( -4.275831445896958607E-31, -1.000000000000000000, -1.224646799147353207E-16 ) ) ;
#5 = APPROVAL_STATUS ( 'not_yet_approved' ) ;
#6 = AXIS2_PLACEMENT_3D ( 'NONE', #207, #148, #56 ) ;
#7 = VERTEX_POINT ( 'NONE', #113 ) ;
#8 = APPLICATION_PROTOCOL_DEFINITION ( 'international standard', 'config_control_design', 1994, #10 ) ;
#9 = APPROVAL ( #219, 'UNSPECIFIED' ) ;
#10 = APPLICATION_CONTEXT ( 'configuration controlled 3d designs of mechanical parts and assemblies' ) ;
#11 = CALENDAR_DATE ( 2021, 1, 11 ) ;
#12 = PRODUCT_DEFINITION ( 'UNKNOWN', '', #134, #67 ) ;
#13 = PERSON_AND_ORGANIZATION ( #137, #159 ) ;
#14 = EDGE_LOOP ( 'NONE', ( #123 ) ) ;
#15 = CC_DESIGN_APPROVAL ( #124, ( #134 ) ) ;
#16 = APPROVAL_DATE_TIME ( #171, #124 ) ;
#17 = CARTESIAN_POINT ( 'NONE',  ( 2.444036937190192718E-14, -8.592624733039554945E-16, 6.999999999999998224 ) ) ;
#18 = DIRECTION ( 'NONE',  ( 3.491481338843133355E-15, -1.227517819005651059E-16, 1.000000000000000000 ) ) ;
#19 = DIRECTION ( 'NONE',  ( 3.491481338843133355E-15, -1.224646799147353207E-16, 1.000000000000000000 ) ) ;
#20 = CARTESIAN_POINT ( 'NONE',  ( -5.357319447694563972E-31, -3.714082703162453040E-33, -1.534397273757062714E-16 ) ) ;
#21 = DIRECTION ( 'NONE',  ( 0.0000000000000000000, -1.000000000000000000, 0.0000000000000000000 ) ) ;
#22 = VERTEX_POINT ( 'NONE', #60 ) ;
#23 = AXIS2_PLACEMENT_3D ( 'NONE', #210, #69, #54 ) ;
#24 = PRODUCT ( '41909', '41909', '', ( #39 ) ) ;
#25 = VERTEX_POINT ( 'NONE', #152 ) ;
#26 = DIRECTION ( 'NONE',  ( 1.000000000000000000, 0.0000000000000000000, 0.0000000000000000000 ) ) ;
#27 = PERSON_AND_ORGANIZATION_ROLE ( 'design_owner' ) ;
#28 =( GEOMETRIC_REPRESENTATION_CONTEXT ( 3 ) GLOBAL_UNCERTAINTY_ASSIGNED_CONTEXT ( ( #157 ) ) GLOBAL_UNIT_ASSIGNED_CONTEXT ( ( #76, #162, #216 ) ) REPRESENTATION_CONTEXT ( 'NONE', 'WORKASPACE' ) );
#29 = PERSON_AND_ORGANIZATION ( #137, #159 ) ;
#30 = ORIENTED_EDGE ( 'NONE', *, *, #70, .T. ) ;
#31 = CC_DESIGN_APPROVAL ( #9, ( #126 ) ) ;
#32 = ADVANCED_FACE ( 'NONE', ( #72, #55 ), #3, .T. ) ;
#33 = AXIS2_PLACEMENT_3D ( 'NONE', #34, #19, #4 ) ;
#34 = CARTESIAN_POINT ( 'NONE',  ( 2.444036937190193033E-14, 1.124819836996387322E-32, 6.999999999999999112 ) ) ;
#35 = CARTESIAN_POINT ( 'NONE',  ( -6.413731847436034514E-31, 0.0000000000000000000, -1.836965810494968570E-16 ) ) ;
#36 = FACE_OUTER_BOUND ( 'NONE', #82, .T. ) ;
#37 = EDGE_LOOP ( 'NONE', ( #147 ) ) ;
#38 = DIRECTION ( 'NONE',  ( 3.491481338843133355E-15, -1.227517819005651059E-16, 1.000000000000000000 ) ) ;
#39 = MECHANICAL_CONTEXT ( 'NONE', #120, 'mechanical' ) ;
#40 = DATE_AND_TIME ( #11, #87 ) ;
#41 = MANIFOLD_SOLID_BREP ( 'Corps-Déplacer/Copier1[1]', #61 ) ;
#42 = DIRECTION ( 'NONE',  ( -3.491481338843133355E-15, 1.224646799147353207E-16, -1.000000000000000000 ) ) ;
#43 = EDGE_CURVE ( 'NONE', #181, #181, #156, .T. ) ;
#44 = AXIS2_PLACEMENT_3D ( 'NONE', #199, #42, #215 ) ;
#45 = CALENDAR_DATE ( 2021, 1, 11 ) ;
#46 = ORIENTED_EDGE ( 'NONE', *, *, #97, .T. ) ;
#47 = EDGE_LOOP ( 'NONE', ( #30 ) ) ;
#48 = CC_DESIGN_PERSON_AND_ORGANIZATION_ASSIGNMENT ( #13, #188, ( #134 ) ) ;
#49 = COORDINATED_UNIVERSAL_TIME_OFFSET ( 1, 0, .AHEAD. ) ;
#50 = AXIS2_PLACEMENT_3D ( 'NONE', #35, #18, #89 ) ;
#51 = PERSON_AND_ORGANIZATION ( #137, #159 ) ;
#52 = DIRECTION ( 'NONE',  ( -4.275831445896958607E-31, -1.000000000000000000, -1.224646799147353207E-16 ) ) ;
#53 = FACE_OUTER_BOUND ( 'NONE', #37, .T. ) ;
#54 = DIRECTION ( 'NONE',  ( -4.275831445896958607E-31, -1.000000000000000000, -1.224646799147353207E-16 ) ) ;
#55 = FACE_OUTER_BOUND ( 'NONE', #65, .T. ) ;
#56 = DIRECTION ( 'NONE',  ( 0.0000000000000000000, 1.000000000000000000, 0.0000000000000000000 ) ) ;
#57 = AXIS2_PLACEMENT_3D ( 'NONE', #17, #38, #194 ) ;
#58 = CARTESIAN_POINT ( 'NONE',  ( 0.0000000000000000000, 0.0000000000000000000, 0.0000000000000000000 ) ) ;
#59 = EDGE_CURVE ( 'NONE', #166, #166, #185, .T. ) ;
#60 = CARTESIAN_POINT ( 'NONE',  ( 1.326762908760390423E-13, 1.199999999999993294, 38.00000000000000000 ) ) ;
#61 = CLOSED_SHELL ( 'NONE', ( #32, #221, #218, #75, #144 ) ) ;
#62 = APPROVAL_PERSON_ORGANIZATION ( #222, #124, #167 ) ;
#63 = CC_DESIGN_PERSON_AND_ORGANIZATION_ASSIGNMENT ( #29, #102, ( #134 ) ) ;
#64 = COORDINATED_UNIVERSAL_TIME_OFFSET ( 1, 0, .AHEAD. ) ;
#65 = EDGE_LOOP ( 'NONE', ( #105 ) ) ;
#66 = LOCAL_TIME ( 11, 35, 12.00000000000000000, #49 ) ;
#67 = DESIGN_CONTEXT ( 'detailed design', #10, 'design' ) ;
#68 = PLANE ( 'NONE',  #103 ) ;
#69 = DIRECTION ( 'NONE',  ( 3.491481338843133355E-15, -1.224646799147353207E-16, 1.000000000000000000 ) ) ;
#70 = EDGE_CURVE ( 'NONE', #22, #22, #71, .T. ) ;
#71 = CIRCLE ( 'NONE', #6, 1.199999999999997957 ) ;
#72 = FACE_OUTER_BOUND ( 'NONE', #14, .T. ) ;
#73 = CARTESIAN_POINT ( 'NONE',  ( 1.316288464743861212E-13, -4.616918432785521081E-15, 37.69999999999999574 ) ) ;
#74 = DIRECTION ( 'NONE',  ( 3.491481338843133355E-15, -1.227517819005651059E-16, 1.000000000000000000 ) ) ;
#75 = ADVANCED_FACE ( 'NONE', ( #36, #131 ), #176, .F. ) ;
#76 =( LENGTH_UNIT ( ) NAMED_UNIT ( * ) SI_UNIT ( .MILLI., .METRE. ) );
#77 = COORDINATED_UNIVERSAL_TIME_OFFSET ( 1, 0, .AHEAD. ) ;
#78 = VERTEX_POINT ( 'NONE', #197 ) ;
#79 = CONICAL_SURFACE ( 'NONE', #44, 1.199999999999997957, 0.7853981633974450594 ) ;
#80 = APPROVAL_PERSON_ORGANIZATION ( #153, #9, #83 ) ;
#81 = CC_DESIGN_DATE_AND_TIME_ASSIGNMENT ( #98, #116, ( #126 ) ) ;
#82 = EDGE_LOOP ( 'NONE', ( #117 ) ) ;
#83 = APPROVAL_ROLE ( '' ) ;
#84 = EDGE_LOOP ( 'NONE', ( #85 ) ) ;
#85 = ORIENTED_EDGE ( 'NONE', *, *, #70, .F. ) ;
#86 = AXIS2_PLACEMENT_3D ( 'NONE', #175, #179, #21 ) ;
#87 = LOCAL_TIME ( 11, 35, 12.00000000000000000, #186 ) ;
#88 = CARTESIAN_POINT ( 'NONE',  ( 2.444036937190192718E-14, 0.0000000000000000000, 6.999999999999998224 ) ) ;
#89 = DIRECTION ( 'NONE',  ( -4.285855558155653280E-31, -1.000000000000000000, -1.227517819005651305E-16 ) ) ;
#90 = FACE_OUTER_BOUND ( 'NONE', #99, .T. ) ;
#91 = EDGE_CURVE ( 'NONE', #7, #7, #191, .T. ) ;
#92 = FACE_BOUND ( 'NONE', #47, .T. ) ;
#93 = PERSON_AND_ORGANIZATION_ROLE ( 'creator' ) ;
#94 = CC_DESIGN_PERSON_AND_ORGANIZATION_ASSIGNMENT ( #51, #140, ( #126 ) ) ;
#95 = DIRECTION ( 'NONE',  ( -3.491481338843133355E-15, 1.224646799147353207E-16, -1.000000000000000000 ) ) ;
#96 = PERSON_AND_ORGANIZATION ( #137, #159 ) ;
#97 = EDGE_CURVE ( 'NONE', #25, #25, #177, .T. ) ;
#98 = DATE_AND_TIME ( #45, #200 ) ;
#99 = EDGE_LOOP ( 'NONE', ( #202 ) ) ;
#100 = EDGE_LOOP ( 'NONE', ( #211 ) ) ;
#101 = CIRCLE ( 'NONE', #182, 1.499999999999997558 ) ;
#102 = PERSON_AND_ORGANIZATION_ROLE ( 'creator' ) ;
#103 = AXIS2_PLACEMENT_3D ( 'NONE', #208, #143, #52 ) ;
#104 = DIRECTION ( 'NONE',  ( 0.0000000000000000000, 1.000000000000000000, 0.0000000000000000000 ) ) ;
#105 = ORIENTED_EDGE ( 'NONE', *, *, #97, .F. ) ;
#106 = FACE_OUTER_BOUND ( 'NONE', #100, .T. ) ;
#107 = LOCAL_TIME ( 11, 35, 12.00000000000000000, #64 ) ;
#108 = DIRECTION ( 'NONE',  ( 4.275831445896958607E-31, 1.000000000000000000, 1.224646799147353207E-16 ) ) ;
#109 = EDGE_LOOP ( 'NONE', ( #173 ) ) ;
#110 = CARTESIAN_POINT ( 'NONE',  ( -1.071463889538912619E-30, -1.249999999999998890, -3.068794547514125428E-16 ) ) ;
#111 = APPROVAL_DATE_TIME ( #40, #205 ) ;
#112 = PRODUCT_DEFINITION_SHAPE ( 'NONE', 'NONE',  #12 ) ;
#113 = CARTESIAN_POINT ( 'NONE',  ( 2.444036937190192718E-14, -1.249999999999999334, 6.999999999999998224 ) ) ;
#114 = FACE_OUTER_BOUND ( 'NONE', #84, .T. ) ;
#115 = AXIS2_PLACEMENT_3D ( 'NONE', #209, #174, #158 ) ;
#116 = DATE_TIME_ROLE ( 'classification_date' ) ;
#117 = ORIENTED_EDGE ( 'NONE', *, *, #91, .T. ) ;
#118 = EDGE_LOOP ( 'NONE', ( #168 ) ) ;
#119 = MANIFOLD_SOLID_BREP ( 'Corps-Déplacer/Copier1[2]', #195 ) ;
#120 = APPLICATION_CONTEXT ( 'configuration controlled 3d designs of mechanical parts and assemblies' ) ;
#121 = ADVANCED_FACE ( 'NONE', ( #223 ), #68, .F. ) ;
#122 = DATE_AND_TIME ( #155, #107 ) ;
#123 = ORIENTED_EDGE ( 'NONE', *, *, #180, .T. ) ;
#124 = APPROVAL ( #187, 'UNSPECIFIED' ) ;
#125 = AXIS2_PLACEMENT_3D ( 'NONE', #20, #160, #193 ) ;
#126 = SECURITY_CLASSIFICATION ( '', '', #172 ) ;
#127 = FACE_OUTER_BOUND ( 'NONE', #118, .T. ) ;
#128 = DIRECTION ( 'NONE',  ( -3.491481338843133355E-15, 1.224646799147353207E-16, -1.000000000000000000 ) ) ;
#129 = ADVANCED_FACE ( 'NONE', ( #106 ), #190, .T. ) ;
#130 = PLANE ( 'NONE',  #23 ) ;
#131 = FACE_OUTER_BOUND ( 'NONE', #220, .T. ) ;
#132 = DIRECTION ( 'NONE',  ( 0.0000000000000000000, 0.0000000000000000000, 1.000000000000000000 ) ) ;
#133 = DIRECTION ( 'NONE',  ( 4.275831445896958607E-31, 1.000000000000000000, 1.224646799147353207E-16 ) ) ;
#134 = PRODUCT_DEFINITION_FORMATION_WITH_SPECIFIED_SOURCE ( 'ANY', '', #24, .NOT_KNOWN. ) ;
#135 = CARTESIAN_POINT ( 'NONE',  ( 1.326762908760390423E-13, 8.998558695971062171E-33, 38.00000000000000000 ) ) ;
#136 = APPROVAL_ROLE ( '' ) ;
#137 = PERSON ( 'UNSPECIFIED', 'UNSPECIFIED', 'UNSPECIFIED', ('UNSPECIFIED'), ('UNSPECIFIED'), ('UNSPECIFIED') ) ;
#138 = APPROVAL_DATE_TIME ( #122, #9 ) ;
#139 = CC_DESIGN_DATE_AND_TIME_ASSIGNMENT ( #217, #169, ( #12 ) ) ;
#140 = PERSON_AND_ORGANIZATION_ROLE ( 'classification_officer' ) ;
#141 = CALENDAR_DATE ( 2021, 1, 11 ) ;
#142 = AXIS2_PLACEMENT_3D ( 'NONE', #178, #1, #108 ) ;
#143 = DIRECTION ( 'NONE',  ( 3.491481338843133355E-15, -1.224646799147353207E-16, 1.000000000000000000 ) ) ;
#144 = ADVANCED_FACE ( 'NONE', ( #90 ), #130, .F. ) ;
#145 = CC_DESIGN_SECURITY_CLASSIFICATION ( #126, ( #134 ) ) ;
#146 = PRODUCT_RELATED_PRODUCT_CATEGORY ( 'detail', '', ( #24 ) ) ;
#147 = ORIENTED_EDGE ( 'NONE', *, *, #59, .T. ) ;
#148 = DIRECTION ( 'NONE',  ( -3.491481338843133355E-15, 1.224646799147353207E-16, -1.000000000000000000 ) ) ;
#149 = ADVANCED_BREP_SHAPE_REPRESENTATION ( '41909', ( #41, #119, #206 ), #28 ) ;
#150 = FACE_OUTER_BOUND ( 'NONE', #109, .T. ) ;
#151 = APPROVAL_PERSON_ORGANIZATION ( #96, #205, #136 ) ;
#152 = CARTESIAN_POINT ( 'NONE',  ( 3.136856286925323719E-14, 1.499999999999995559, 8.984313483298434377 ) ) ;
#153 = PERSON_AND_ORGANIZATION ( #137, #159 ) ;
#154 = AXIS2_PLACEMENT_3D ( 'NONE', #135, #95, #133 ) ;
#155 = CALENDAR_DATE ( 2021, 1, 11 ) ;
#156 = CIRCLE ( 'NONE', #57, 1.249999999999998446 ) ;
#157 = UNCERTAINTY_MEASURE_WITH_UNIT (LENGTH_MEASURE( 1.000000000000000082E-05 ), #76, 'distance_accuracy_value', 'NONE');
#158 = DIRECTION ( 'NONE',  ( 0.0000000000000000000, 1.000000000000000000, 0.0000000000000000000 ) ) ;
#159 = ORGANIZATION ( 'UNSPECIFIED', 'UNSPECIFIED', '' ) ;
#160 = DIRECTION ( 'NONE',  ( 3.491481338843133355E-15, -1.227517819005651059E-16, 1.000000000000000000 ) ) ;
#161 = ORIENTED_EDGE ( 'NONE', *, *, #59, .F. ) ;
#162 =( NAMED_UNIT ( * ) PLANE_ANGLE_UNIT ( ) SI_UNIT ( $, .RADIAN. ) );
#163 = CC_DESIGN_APPROVAL ( #205, ( #12 ) ) ;
#164 = CC_DESIGN_PERSON_AND_ORGANIZATION_ASSIGNMENT ( #184, #27, ( #24 ) ) ;
#165 = CARTESIAN_POINT ( 'NONE',  ( 2.444036937190192718E-14, -1.249999999999999334, 6.999999999999998224 ) ) ;
#166 = VERTEX_POINT ( 'NONE', #110 ) ;
#167 = APPROVAL_ROLE ( '' ) ;
#168 = ORIENTED_EDGE ( 'NONE', *, *, #43, .F. ) ;
#169 = DATE_TIME_ROLE ( 'creation_date' ) ;
#170 = LOCAL_TIME ( 11, 35, 12.00000000000000000, #77 ) ;
#171 = DATE_AND_TIME ( #141, #66 ) ;
#172 = SECURITY_CLASSIFICATION_LEVEL ( 'unclassified' ) ;
#173 = ORIENTED_EDGE ( 'NONE', *, *, #180, .F. ) ;
#174 = DIRECTION ( 'NONE',  ( -3.491481338843133355E-15, 1.227517819005651059E-16, -1.000000000000000000 ) ) ;
#175 = CARTESIAN_POINT ( 'NONE',  ( 2.444036937190192718E-14, -8.592624733039554945E-16, 6.999999999999998224 ) ) ;
#176 = TOROIDAL_SURFACE ( 'NONE', #198, 9.249999999999998224, 8.000000000000000000 ) ;
#177 = CIRCLE ( 'NONE', #115, 1.499999999999995781 ) ;
#178 = CARTESIAN_POINT ( 'NONE',  ( 0.0000000000000000000, 0.0000000000000000000, 0.0000000000000000000 ) ) ;
#179 = DIRECTION ( 'NONE',  ( 3.491481338843133355E-15, -1.227517819005651059E-16, 1.000000000000000000 ) ) ;
#180 = EDGE_CURVE ( 'NONE', #78, #78, #101, .T. ) ;
#181 = VERTEX_POINT ( 'NONE', #165 ) ;
#182 = AXIS2_PLACEMENT_3D ( 'NONE', #73, #128, #104 ) ;
#183 = PERSON_AND_ORGANIZATION ( #137, #159 ) ;
#184 = PERSON_AND_ORGANIZATION ( #137, #159 ) ;
#185 = CIRCLE ( 'NONE', #125, 1.249999999999998890 ) ;
#186 = COORDINATED_UNIVERSAL_TIME_OFFSET ( 1, 0, .AHEAD. ) ;
#187 = APPROVAL_STATUS ( 'not_yet_approved' ) ;
#188 = PERSON_AND_ORGANIZATION_ROLE ( 'design_supplier' ) ;
#189 = COORDINATED_UNIVERSAL_TIME_OFFSET ( 1, 0, .AHEAD. ) ;
#190 = PLANE ( 'NONE',  #33 ) ;
#191 = CIRCLE ( 'NONE', #86, 1.249999999999998446 ) ;
#192 = CYLINDRICAL_SURFACE ( 'NONE', #50, 1.249999999999998668 ) ;
#193 = DIRECTION ( 'NONE',  ( -4.285855558155653280E-31, -1.000000000000000000, -1.227517819005651059E-16 ) ) ;
#194 = DIRECTION ( 'NONE',  ( 0.0000000000000000000, -1.000000000000000000, 0.0000000000000000000 ) ) ;
#195 = CLOSED_SHELL ( 'NONE', ( #129, #201, #121 ) ) ;
#196 = DIRECTION ( 'NONE',  ( -4.347433052424081572E-31, -1.000000000000000000, -1.227517819005651059E-16 ) ) ;
#197 = CARTESIAN_POINT ( 'NONE',  ( 1.316288464743861212E-13, 1.499999999999993117, 37.69999999999999574 ) ) ;
#198 = AXIS2_PLACEMENT_3D ( 'NONE', #88, #74, #196 ) ;
#199 = CARTESIAN_POINT ( 'NONE',  ( 1.326762908760390423E-13, -4.653657836759941941E-15, 38.00000000000000000 ) ) ;
#200 = LOCAL_TIME ( 11, 35, 12.00000000000000000, #189 ) ;
#201 = ADVANCED_FACE ( 'NONE', ( #53, #127 ), #192, .T. ) ;
#202 = ORIENTED_EDGE ( 'NONE', *, *, #91, .F. ) ;
#203 = SHAPE_DEFINITION_REPRESENTATION ( #112, #149 ) ;
#204 = EDGE_LOOP ( 'NONE', ( #161 ) ) ;
#205 = APPROVAL ( #5, 'UNSPECIFIED' ) ;
#206 = AXIS2_PLACEMENT_3D ( 'NONE', #58, #132, #26 ) ;
#207 = CARTESIAN_POINT ( 'NONE',  ( 1.326762908760390423E-13, -4.653657836759941941E-15, 38.00000000000000000 ) ) ;
#208 = CARTESIAN_POINT ( 'NONE',  ( -6.413803915257455362E-31, 2.249659577954771652E-32, -1.836986451539392583E-16 ) ) ;
#209 = CARTESIAN_POINT ( 'NONE',  ( 3.136856286925323719E-14, -2.435780159242002668E-16, 8.984313483298434377 ) ) ;
#210 = CARTESIAN_POINT ( 'NONE',  ( 2.444036937190193033E-14, 1.124819836996387322E-32, 6.999999999999999112 ) ) ;
#211 = ORIENTED_EDGE ( 'NONE', *, *, #43, .T. ) ;
#212 = PLANE ( 'NONE',  #154 ) ;
#213 = APPLICATION_PROTOCOL_DEFINITION ( 'international standard', 'config_control_design', 1994, #120 ) ;
#214 = CALENDAR_DATE ( 2021, 1, 11 ) ;
#215 = DIRECTION ( 'NONE',  ( 0.0000000000000000000, 1.000000000000000000, 0.0000000000000000000 ) ) ;
#216 =( NAMED_UNIT ( * ) SI_UNIT ( $, .STERADIAN. ) SOLID_ANGLE_UNIT ( ) );
#217 = DATE_AND_TIME ( #214, #170 ) ;
#218 = ADVANCED_FACE ( 'NONE', ( #114 ), #212, .F. ) ;
#219 = APPROVAL_STATUS ( 'not_yet_approved' ) ;
#220 = EDGE_LOOP ( 'NONE', ( #46 ) ) ;
#221 = ADVANCED_FACE ( 'NONE', ( #150, #92 ), #79, .T. ) ;
#222 = PERSON_AND_ORGANIZATION ( #137, #159 ) ;
#223 = FACE_OUTER_BOUND ( 'NONE', #204, .T. ) ;
ENDSEC;
END-ISO-10303-21;
