ISO-10303-21;
HEADER;
FILE_DESCRIPTION (( 'STEP AP203' ),
    '1' );
FILE_NAME ('41908.step',
    '2021-11-01T10:35:11',
    ( '' ),
    ( '' ),
    'SwSTEP 2.0',
    'SolidWorks 2019',
    '' );
FILE_SCHEMA (( 'CONFIG_CONTROL_DESIGN' ));
ENDSEC;

DATA;
#1 = FACE_OUTER_BOUND ( 'NONE', #29, .T. ) ;
#2 = APPROVAL_PERSON_ORGANIZATION ( #10, #61, #74 ) ;
#3 = CARTESIAN_POINT ( 'NONE',  ( -1.068961576881612160E-30, 3.749412488549432166E-32, -3.061627639218033290E-16 ) ) ;
#4 = PRODUCT_RELATED_PRODUCT_CATEGORY ( 'detail', '', ( #47 ) ) ;
#5 = CARTESIAN_POINT ( 'NONE',  ( -8.551737199941404161E-31, 2.999999999999991562, -2.449314880994017559E-16 ) ) ;
#6 = VERTEX_POINT ( 'NONE', #5 ) ;
#7 =( GEOMETRIC_REPRESENTATION_CONTEXT ( 3 ) GLOBAL_UNCERTAINTY_ASSIGNED_CONTEXT ( ( #150 ) ) GLOBAL_UNIT_ASSIGNED_CONTEXT ( ( #70, #113, #32 ) ) REPRESENTATION_CONTEXT ( 'NONE', 'WORKASPACE' ) );
#8 = CALENDAR_DATE ( 2021, 1, 11 ) ;
#9 = MECHANICAL_CONTEXT ( 'NONE', #130, 'mechanical' ) ;
#10 = PERSON_AND_ORGANIZATION ( #114, #96 ) ;
#11 = APPROVAL_STATUS ( 'not_yet_approved' ) ;
#12 = DIRECTION ( 'NONE',  ( 3.491481338843133355E-15, -1.224646799147353207E-16, 1.000000000000000000 ) ) ;
#13 = FACE_OUTER_BOUND ( 'NONE', #65, .T. ) ;
#14 = AXIS2_PLACEMENT_3D ( 'NONE', #169, #152, #82 ) ;
#15 = PRODUCT_DEFINITION ( 'UNKNOWN', '', #38, #167 ) ;
#16 = DIRECTION ( 'NONE',  ( 0.0000000000000000000, 1.000000000000000000, 0.0000000000000000000 ) ) ;
#17 = FACE_OUTER_BOUND ( 'NONE', #30, .T. ) ;
#18 = APPROVAL_PERSON_ORGANIZATION ( #172, #63, #106 ) ;
#19 = CC_DESIGN_PERSON_AND_ORGANIZATION_ASSIGNMENT ( #144, #146, ( #38 ) ) ;
#20 = DIRECTION ( 'NONE',  ( 4.275831445896958607E-31, 1.000000000000000000, 1.224646799147353207E-16 ) ) ;
#21 = CARTESIAN_POINT ( 'NONE',  ( 0.0000000000000000000, 0.0000000000000000000, 0.0000000000000000000 ) ) ;
#22 = CC_DESIGN_APPROVAL ( #63, ( #15 ) ) ;
#23 = COORDINATED_UNIVERSAL_TIME_OFFSET ( 1, 0, .AHEAD. ) ;
#24 = DATE_AND_TIME ( #157, #89 ) ;
#25 = ADVANCED_FACE ( 'NONE', ( #13, #79 ), #202, .T. ) ;
#26 = DIRECTION ( 'NONE',  ( 1.000000000000000000, 0.0000000000000000000, 0.0000000000000000000 ) ) ;
#27 = DATE_TIME_ROLE ( 'creation_date' ) ;
#28 = CARTESIAN_POINT ( 'NONE',  ( 3.491481338843133355E-14, 2.249639673992779296E-32, 10.00000000000000000 ) ) ;
#29 = EDGE_LOOP ( 'NONE', ( #129 ) ) ;
#30 = EDGE_LOOP ( 'NONE', ( #165 ) ) ;
#31 = AXIS2_PLACEMENT_3D ( 'NONE', #51, #170, #180 ) ;
#32 =( NAMED_UNIT ( * ) SI_UNIT ( $, .STERADIAN. ) SOLID_ANGLE_UNIT ( ) );
#33 = PRODUCT_DEFINITION_SHAPE ( 'NONE', 'NONE',  #15 ) ;
#34 = DIRECTION ( 'NONE',  ( -3.491481338843133355E-15, 1.224646799147353207E-16, -1.000000000000000000 ) ) ;
#35 = VERTEX_POINT ( 'NONE', #154 ) ;
#36 = CARTESIAN_POINT ( 'NONE',  ( -2.137923153763224320E-30, 7.498824977098864332E-32, -6.123255278436066581E-16 ) ) ;
#37 = DATE_TIME_ROLE ( 'classification_date' ) ;
#38 = PRODUCT_DEFINITION_FORMATION_WITH_SPECIFIED_SOURCE ( 'ANY', '', #47, .NOT_KNOWN. ) ;
#39 = APPLICATION_CONTEXT ( 'configuration controlled 3d designs of mechanical parts and assemblies' ) ;
#40 = CC_DESIGN_PERSON_AND_ORGANIZATION_ASSIGNMENT ( #200, #108, ( #112 ) ) ;
#41 = APPLICATION_PROTOCOL_DEFINITION ( 'international standard', 'config_control_design', 1994, #130 ) ;
#42 = APPROVAL_DATE_TIME ( #185, #61 ) ;
#43 = CIRCLE ( 'NONE', #14, 2.999999999999992895 ) ;
#44 = FACE_OUTER_BOUND ( 'NONE', #201, .T. ) ;
#45 = FACE_OUTER_BOUND ( 'NONE', #178, .T. ) ;
#46 = LOCAL_TIME ( 11, 35, 11.00000000000000000, #156 ) ;
#47 = PRODUCT ( '41908', '41908', '', ( #9 ) ) ;
#48 = ADVANCED_FACE ( 'NONE', ( #44 ), #192, .T. ) ;
#49 = ORIENTED_EDGE ( 'NONE', *, *, #97, .T. ) ;
#50 = CLOSED_SHELL ( 'NONE', ( #94, #25, #48 ) ) ;
#51 = CARTESIAN_POINT ( 'NONE',  ( 3.491481338843133355E-14, -1.224646799147353256E-15, 10.00000000000000000 ) ) ;
#52 = PLANE ( 'NONE',  #107 ) ;
#53 = VERTEX_POINT ( 'NONE', #83 ) ;
#54 = CLOSED_SHELL ( 'NONE', ( #56, #123, #171, #87 ) ) ;
#55 = DIRECTION ( 'NONE',  ( 3.491481338843133355E-15, -1.224646799147353207E-16, 1.000000000000000000 ) ) ;
#56 = ADVANCED_FACE ( 'NONE', ( #45 ), #109, .F. ) ;
#57 = COORDINATED_UNIVERSAL_TIME_OFFSET ( 1, 0, .AHEAD. ) ;
#58 = SHAPE_DEFINITION_REPRESENTATION ( #33, #135 ) ;
#59 = CIRCLE ( 'NONE', #173, 2.999999999999991562 ) ;
#60 = CARTESIAN_POINT ( 'NONE',  ( 0.0000000000000000000, 0.0000000000000000000, 0.0000000000000000000 ) ) ;
#61 = APPROVAL ( #11, 'UNSPECIFIED' ) ;
#62 = CONICAL_SURFACE ( 'NONE', #147, 2.599999999999998312, 0.7853981633974428389 ) ;
#63 = APPROVAL ( #90, 'UNSPECIFIED' ) ;
#64 = CARTESIAN_POINT ( 'NONE',  ( 3.491481338843133355E-14, 2.249639673992779296E-32, 10.00000000000000000 ) ) ;
#65 = EDGE_LOOP ( 'NONE', ( #110 ) ) ;
#66 = ORIENTED_EDGE ( 'NONE', *, *, #191, .T. ) ;
#67 = FACE_OUTER_BOUND ( 'NONE', #193, .T. ) ;
#68 = FACE_OUTER_BOUND ( 'NONE', #148, .T. ) ;
#69 = DIRECTION ( 'NONE',  ( -3.491481338843133355E-15, 1.224646799147353207E-16, -1.000000000000000000 ) ) ;
#70 =( LENGTH_UNIT ( ) NAMED_UNIT ( * ) SI_UNIT ( .MILLI., .METRE. ) );
#71 = CARTESIAN_POINT ( 'NONE',  ( 1.976178437785213353E-13, 2.999999999999991562, 56.59999999999999432 ) ) ;
#72 = CC_DESIGN_APPROVAL ( #128, ( #112 ) ) ;
#73 = APPROVAL_STATUS ( 'not_yet_approved' ) ;
#74 = APPROVAL_ROLE ( '' ) ;
#75 = PERSON_AND_ORGANIZATION ( #114, #96 ) ;
#76 = AXIS2_PLACEMENT_3D ( 'NONE', #60, #91, #26 ) ;
#77 = DIRECTION ( 'NONE',  ( -4.275831445896958607E-31, -1.000000000000000000, -1.224646799147353207E-16 ) ) ;
#78 = CC_DESIGN_PERSON_AND_ORGANIZATION_ASSIGNMENT ( #75, #187, ( #38 ) ) ;
#79 = FACE_OUTER_BOUND ( 'NONE', #194, .T. ) ;
#80 = APPROVAL_PERSON_ORGANIZATION ( #174, #128, #103 ) ;
#81 = ORIENTED_EDGE ( 'NONE', *, *, #191, .F. ) ;
#82 = DIRECTION ( 'NONE',  ( 0.0000000000000000000, 1.000000000000000000, 0.0000000000000000000 ) ) ;
#83 = CARTESIAN_POINT ( 'NONE',  ( 1.990144363140586139E-13, 2.599999999999991207, 57.00000000000000000 ) ) ;
#84 = LOCAL_TIME ( 11, 35, 11.00000000000000000, #57 ) ;
#85 = PLANE ( 'NONE',  #186 ) ;
#86 = DIRECTION ( 'NONE',  ( -3.491481338843133355E-15, 1.224646799147353207E-16, -1.000000000000000000 ) ) ;
#87 = ADVANCED_FACE ( 'NONE', ( #17 ), #52, .F. ) ;
#88 = CARTESIAN_POINT ( 'NONE',  ( 1.990144363140586139E-13, -6.980486755139912911E-15, 57.00000000000000000 ) ) ;
#89 = LOCAL_TIME ( 11, 35, 11.00000000000000000, #142 ) ;
#90 = APPROVAL_STATUS ( 'not_yet_approved' ) ;
#91 = DIRECTION ( 'NONE',  ( 0.0000000000000000000, 0.0000000000000000000, 1.000000000000000000 ) ) ;
#92 = COORDINATED_UNIVERSAL_TIME_OFFSET ( 1, 0, .AHEAD. ) ;
#93 = SECURITY_CLASSIFICATION_LEVEL ( 'unclassified' ) ;
#94 = ADVANCED_FACE ( 'NONE', ( #67 ), #85, .F. ) ;
#95 = DIRECTION ( 'NONE',  ( -3.491481338843133355E-15, 1.224646799147353207E-16, -1.000000000000000000 ) ) ;
#96 = ORGANIZATION ( 'UNSPECIFIED', 'UNSPECIFIED', '' ) ;
#97 = EDGE_CURVE ( 'NONE', #35, #35, #137, .T. ) ;
#98 = ORIENTED_EDGE ( 'NONE', *, *, #163, .F. ) ;
#99 = AXIS2_PLACEMENT_3D ( 'NONE', #176, #95, #162 ) ;
#100 = DIRECTION ( 'NONE',  ( 4.275831445896959482E-31, 1.000000000000000000, 1.224646799147353207E-16 ) ) ;
#101 = VERTEX_POINT ( 'NONE', #71 ) ;
#102 = CARTESIAN_POINT ( 'NONE',  ( 1.990144363140586139E-13, -6.980486755139912911E-15, 57.00000000000000000 ) ) ;
#103 = APPROVAL_ROLE ( '' ) ;
#104 = PERSON_AND_ORGANIZATION ( #114, #96 ) ;
#105 = EDGE_CURVE ( 'NONE', #6, #6, #59, .T. ) ;
#106 = APPROVAL_ROLE ( '' ) ;
#107 = AXIS2_PLACEMENT_3D ( 'NONE', #116, #153, #20 ) ;
#108 = PERSON_AND_ORGANIZATION_ROLE ( 'classification_officer' ) ;
#109 = PLANE ( 'NONE',  #138 ) ;
#110 = ORIENTED_EDGE ( 'NONE', *, *, #105, .F. ) ;
#111 = CIRCLE ( 'NONE', #132, 2.999999999999998224 ) ;
#112 = SECURITY_CLASSIFICATION ( '', '', #93 ) ;
#113 =( NAMED_UNIT ( * ) PLANE_ANGLE_UNIT ( ) SI_UNIT ( $, .RADIAN. ) );
#114 = PERSON ( 'UNSPECIFIED', 'UNSPECIFIED', 'UNSPECIFIED', ('UNSPECIFIED'), ('UNSPECIFIED'), ('UNSPECIFIED') ) ;
#115 = DIRECTION ( 'NONE',  ( -4.275831445896958607E-31, -1.000000000000000000, -1.224646799147353207E-16 ) ) ;
#116 = CARTESIAN_POINT ( 'NONE',  ( 1.990144363140586139E-13, 1.949687717460403121E-32, 57.00000000000000000 ) ) ;
#117 = CARTESIAN_POINT ( 'NONE',  ( 1.976178437785213353E-13, -6.931500883174018694E-15, 56.59999999999999432 ) ) ;
#118 = CALENDAR_DATE ( 2021, 1, 11 ) ;
#119 = CALENDAR_DATE ( 2021, 1, 11 ) ;
#120 = CC_DESIGN_PERSON_AND_ORGANIZATION_ASSIGNMENT ( #104, #161, ( #47 ) ) ;
#121 = CC_DESIGN_APPROVAL ( #61, ( #38 ) ) ;
#122 = PERSON_AND_ORGANIZATION ( #114, #96 ) ;
#123 = ADVANCED_FACE ( 'NONE', ( #1, #68 ), #183, .T. ) ;
#124 = AXIS2_PLACEMENT_3D ( 'NONE', #64, #12, #77 ) ;
#125 = CIRCLE ( 'NONE', #199, 2.599999999999998312 ) ;
#126 = ORIENTED_EDGE ( 'NONE', *, *, #158, .T. ) ;
#127 = EDGE_LOOP ( 'NONE', ( #126 ) ) ;
#128 = APPROVAL ( #73, 'UNSPECIFIED' ) ;
#129 = ORIENTED_EDGE ( 'NONE', *, *, #97, .F. ) ;
#130 = APPLICATION_CONTEXT ( 'configuration controlled 3d designs of mechanical parts and assemblies' ) ;
#131 = VERTEX_POINT ( 'NONE', #139 ) ;
#132 = AXIS2_PLACEMENT_3D ( 'NONE', #117, #134, #181 ) ;
#133 = DIRECTION ( 'NONE',  ( 0.0000000000000000000, 1.000000000000000000, 0.0000000000000000000 ) ) ;
#134 = DIRECTION ( 'NONE',  ( -3.491481338843133355E-15, 1.224646799147353207E-16, -1.000000000000000000 ) ) ;
#135 = ADVANCED_BREP_SHAPE_REPRESENTATION ( '41908', ( #145, #203, #76 ), #7 ) ;
#136 = DIRECTION ( 'NONE',  ( 4.275831445896958607E-31, 1.000000000000000000, 1.224646799147353207E-16 ) ) ;
#137 = CIRCLE ( 'NONE', #31, 2.999999999999992895 ) ;
#138 = AXIS2_PLACEMENT_3D ( 'NONE', #28, #151, #179 ) ;
#139 = CARTESIAN_POINT ( 'NONE',  ( 3.491481338843133355E-14, 2.999999999999991562, 10.00000000000000000 ) ) ;
#140 = CC_DESIGN_DATE_AND_TIME_ASSIGNMENT ( #160, #27, ( #15 ) ) ;
#141 = DATE_AND_TIME ( #8, #166 ) ;
#142 = COORDINATED_UNIVERSAL_TIME_OFFSET ( 1, 0, .AHEAD. ) ;
#143 = PERSON_AND_ORGANIZATION_ROLE ( 'creator' ) ;
#144 = PERSON_AND_ORGANIZATION ( #114, #96 ) ;
#145 = MANIFOLD_SOLID_BREP ( 'Corps-Déplacer/Copier1[1]', #54 ) ;
#146 = PERSON_AND_ORGANIZATION_ROLE ( 'design_supplier' ) ;
#147 = AXIS2_PLACEMENT_3D ( 'NONE', #88, #86, #133 ) ;
#148 = EDGE_LOOP ( 'NONE', ( #177 ) ) ;
#149 = EDGE_LOOP ( 'NONE', ( #98 ) ) ;
#150 = UNCERTAINTY_MEASURE_WITH_UNIT (LENGTH_MEASURE( 1.000000000000000082E-05 ), #70, 'distance_accuracy_value', 'NONE');
#151 = DIRECTION ( 'NONE',  ( 3.491481338843133355E-15, -1.224646799147353207E-16, 1.000000000000000000 ) ) ;
#152 = DIRECTION ( 'NONE',  ( -3.491481338843133355E-15, 1.224646799147353207E-16, -1.000000000000000000 ) ) ;
#153 = DIRECTION ( 'NONE',  ( -3.491481338843133355E-15, 1.224646799147353207E-16, -1.000000000000000000 ) ) ;
#154 = CARTESIAN_POINT ( 'NONE',  ( 3.491481338843133355E-14, 2.999999999999991562, 10.00000000000000000 ) ) ;
#155 = CC_DESIGN_DATE_AND_TIME_ASSIGNMENT ( #184, #37, ( #112 ) ) ;
#156 = COORDINATED_UNIVERSAL_TIME_OFFSET ( 1, 0, .AHEAD. ) ;
#157 = CALENDAR_DATE ( 2021, 1, 11 ) ;
#158 = EDGE_CURVE ( 'NONE', #53, #53, #125, .T. ) ;
#159 = APPROVAL_DATE_TIME ( #24, #63 ) ;
#160 = DATE_AND_TIME ( #189, #175 ) ;
#161 = PERSON_AND_ORGANIZATION_ROLE ( 'design_owner' ) ;
#162 = DIRECTION ( 'NONE',  ( 4.275831445896958607E-31, 1.000000000000000000, 1.224646799147353207E-16 ) ) ;
#163 = EDGE_CURVE ( 'NONE', #101, #101, #111, .T. ) ;
#164 = ORIENTED_EDGE ( 'NONE', *, *, #105, .T. ) ;
#165 = ORIENTED_EDGE ( 'NONE', *, *, #158, .F. ) ;
#166 = LOCAL_TIME ( 11, 35, 11.00000000000000000, #23 ) ;
#167 = DESIGN_CONTEXT ( 'detailed design', #39, 'design' ) ;
#168 = DIRECTION ( 'NONE',  ( -3.491481338843133355E-15, 1.224646799147353207E-16, -1.000000000000000000 ) ) ;
#169 = CARTESIAN_POINT ( 'NONE',  ( 3.491481338843133355E-14, -1.224646799147353256E-15, 10.00000000000000000 ) ) ;
#170 = DIRECTION ( 'NONE',  ( -3.491481338843133355E-15, 1.224646799147353207E-16, -1.000000000000000000 ) ) ;
#171 = ADVANCED_FACE ( 'NONE', ( #196, #197 ), #62, .T. ) ;
#172 = PERSON_AND_ORGANIZATION ( #114, #96 ) ;
#173 = AXIS2_PLACEMENT_3D ( 'NONE', #36, #34, #136 ) ;
#174 = PERSON_AND_ORGANIZATION ( #114, #96 ) ;
#175 = LOCAL_TIME ( 11, 35, 11.00000000000000000, #92 ) ;
#176 = CARTESIAN_POINT ( 'NONE',  ( 0.0000000000000000000, 0.0000000000000000000, 0.0000000000000000000 ) ) ;
#177 = ORIENTED_EDGE ( 'NONE', *, *, #163, .T. ) ;
#178 = EDGE_LOOP ( 'NONE', ( #49 ) ) ;
#179 = DIRECTION ( 'NONE',  ( -4.275831445896958607E-31, -1.000000000000000000, -1.224646799147353207E-16 ) ) ;
#180 = DIRECTION ( 'NONE',  ( 0.0000000000000000000, 1.000000000000000000, 0.0000000000000000000 ) ) ;
#181 = DIRECTION ( 'NONE',  ( 0.0000000000000000000, 1.000000000000000000, 0.0000000000000000000 ) ) ;
#182 = CC_DESIGN_PERSON_AND_ORGANIZATION_ASSIGNMENT ( #122, #143, ( #15 ) ) ;
#183 = CYLINDRICAL_SURFACE ( 'NONE', #195, 2.999999999999995559 ) ;
#184 = DATE_AND_TIME ( #118, #84 ) ;
#185 = DATE_AND_TIME ( #119, #46 ) ;
#186 = AXIS2_PLACEMENT_3D ( 'NONE', #3, #55, #115 ) ;
#187 = PERSON_AND_ORGANIZATION_ROLE ( 'creator' ) ;
#188 = APPLICATION_PROTOCOL_DEFINITION ( 'international standard', 'config_control_design', 1994, #39 ) ;
#189 = CALENDAR_DATE ( 2021, 1, 11 ) ;
#190 = CC_DESIGN_SECURITY_CLASSIFICATION ( #112, ( #38 ) ) ;
#191 = EDGE_CURVE ( 'NONE', #131, #131, #43, .T. ) ;
#192 = PLANE ( 'NONE',  #124 ) ;
#193 = EDGE_LOOP ( 'NONE', ( #164 ) ) ;
#194 = EDGE_LOOP ( 'NONE', ( #66 ) ) ;
#195 = AXIS2_PLACEMENT_3D ( 'NONE', #21, #168, #100 ) ;
#196 = FACE_OUTER_BOUND ( 'NONE', #149, .T. ) ;
#197 = FACE_BOUND ( 'NONE', #127, .T. ) ;
#198 = APPROVAL_DATE_TIME ( #141, #128 ) ;
#199 = AXIS2_PLACEMENT_3D ( 'NONE', #102, #69, #16 ) ;
#200 = PERSON_AND_ORGANIZATION ( #114, #96 ) ;
#201 = EDGE_LOOP ( 'NONE', ( #81 ) ) ;
#202 = CYLINDRICAL_SURFACE ( 'NONE', #99, 2.999999999999992450 ) ;
#203 = MANIFOLD_SOLID_BREP ( 'Corps-Déplacer/Copier1[2]', #50 ) ;
ENDSEC;
END-ISO-10303-21;
