ISO-10303-21;
HEADER;
FILE_DESCRIPTION (( 'STEP AP203' ),
    '1' );
FILE_NAME ('41907.step',
    '2021-11-01T09:16:12',
    ( '' ),
    ( '' ),
    'SwSTEP 2.0',
    'SolidWorks 2019',
    '' );
FILE_SCHEMA (( 'CONFIG_CONTROL_DESIGN' ));
ENDSEC;

DATA;
#1 = FACE_OUTER_BOUND ( 'NONE', #55, .T. ) ;
#2 = DIRECTION ( 'NONE',  ( 3.491481338843133355E-15, -1.224646799147353207E-16, 1.000000000000000000 ) ) ;
#3 = PLANE ( 'NONE',  #18 ) ;
#4 = EDGE_CURVE ( 'NONE', #99, #99, #13, .T. ) ;
#5 = PLANE ( 'NONE',  #29 ) ;
#6 = LOCAL_TIME ( 10, 16, 12.00000000000000000, #12 ) ;
#7 = MANIFOLD_SOLID_BREP ( 'Corps-Déplacer/Copier1[1]', #26 ) ;
#8 = PERSON_AND_ORGANIZATION_ROLE ( 'design_supplier' ) ;
#9 = APPROVAL_STATUS ( 'not_yet_approved' ) ;
#10 = CLOSED_SHELL ( 'NONE', ( #129, #11, #75 ) ) ;
#11 = ADVANCED_FACE ( 'NONE', ( #35, #16 ), #142, .T. ) ;
#12 = COORDINATED_UNIVERSAL_TIME_OFFSET ( 1, 0, .AHEAD. ) ;
#13 = CIRCLE ( 'NONE', #202, 2.999999999999991562 ) ;
#14 = CARTESIAN_POINT ( 'NONE',  ( 1.969195475107526960E-13, -6.907007947191071191E-15, 56.39999999999999147 ) ) ;
#15 = DIRECTION ( 'NONE',  ( -3.491481338843133355E-15, 1.224646799147353207E-16, -1.000000000000000000 ) ) ;
#16 = FACE_OUTER_BOUND ( 'NONE', #83, .T. ) ;
#17 = CARTESIAN_POINT ( 'NONE',  ( 3.491481338843133355E-14, -1.224646799147353256E-15, 10.00000000000000000 ) ) ;
#18 = AXIS2_PLACEMENT_3D ( 'NONE', #112, #70, #196 ) ;
#19 = EDGE_LOOP ( 'NONE', ( #109 ) ) ;
#20 = DIRECTION ( 'NONE',  ( 4.275831445896958607E-31, 1.000000000000000000, 1.224646799147353207E-16 ) ) ;
#21 = VERTEX_POINT ( 'NONE', #178 ) ;
#22 = CC_DESIGN_PERSON_AND_ORGANIZATION_ASSIGNMENT ( #52, #117, ( #31 ) ) ;
#23 = FACE_OUTER_BOUND ( 'NONE', #141, .T. ) ;
#24 = CARTESIAN_POINT ( 'NONE',  ( 1.969195475107526960E-13, 2.999999999999989786, 56.39999999999999147 ) ) ;
#25 = CARTESIAN_POINT ( 'NONE',  ( 1.990144363140586139E-13, 1.799711739194216266E-32, 57.00000000000000000 ) ) ;
#26 = CLOSED_SHELL ( 'NONE', ( #87, #179, #186, #169 ) ) ;
#27 = PERSON_AND_ORGANIZATION ( #92, #145 ) ;
#28 = APPLICATION_PROTOCOL_DEFINITION ( 'international standard', 'config_control_design', 1994, #194 ) ;
#29 = AXIS2_PLACEMENT_3D ( 'NONE', #86, #2, #116 ) ;
#30 = PERSON_AND_ORGANIZATION ( #92, #145 ) ;
#31 = SECURITY_CLASSIFICATION ( '', '', #197 ) ;
#32 = DATE_AND_TIME ( #140, #47 ) ;
#33 = DESIGN_CONTEXT ( 'detailed design', #147, 'design' ) ;
#34 = ORIENTED_EDGE ( 'NONE', *, *, #56, .F. ) ;
#35 = FACE_OUTER_BOUND ( 'NONE', #201, .T. ) ;
#36 = EDGE_LOOP ( 'NONE', ( #125 ) ) ;
#37 = PRODUCT ( '41907', '41907', '', ( #154 ) ) ;
#38 = CC_DESIGN_PERSON_AND_ORGANIZATION_ASSIGNMENT ( #139, #198, ( #177 ) ) ;
#39 =( GEOMETRIC_REPRESENTATION_CONTEXT ( 3 ) GLOBAL_UNCERTAINTY_ASSIGNED_CONTEXT ( ( #122 ) ) GLOBAL_UNIT_ASSIGNED_CONTEXT ( ( #161, #89, #73 ) ) REPRESENTATION_CONTEXT ( 'NONE', 'WORKASPACE' ) );
#40 = VERTEX_POINT ( 'NONE', #131 ) ;
#41 = DIRECTION ( 'NONE',  ( -3.491481338843133355E-15, 1.224646799147353207E-16, -1.000000000000000000 ) ) ;
#42 = DIRECTION ( 'NONE',  ( 4.275831445896958607E-31, 1.000000000000000000, 1.224646799147353207E-16 ) ) ;
#43 = DIRECTION ( 'NONE',  ( -3.491481338843133355E-15, 1.224646799147353207E-16, -1.000000000000000000 ) ) ;
#44 = PLANE ( 'NONE',  #133 ) ;
#45 = DATE_AND_TIME ( #78, #153 ) ;
#46 = AXIS2_PLACEMENT_3D ( 'NONE', #14, #15, #203 ) ;
#47 = LOCAL_TIME ( 10, 16, 12.00000000000000000, #108 ) ;
#48 = CARTESIAN_POINT ( 'NONE',  ( 0.0000000000000000000, 0.0000000000000000000, 0.0000000000000000000 ) ) ;
#49 = APPROVAL_STATUS ( 'not_yet_approved' ) ;
#50 = AXIS2_PLACEMENT_3D ( 'NONE', #72, #41, #195 ) ;
#51 = PRODUCT_DEFINITION_SHAPE ( 'NONE', 'NONE',  #81 ) ;
#52 = PERSON_AND_ORGANIZATION ( #92, #145 ) ;
#53 = LOCAL_TIME ( 10, 16, 12.00000000000000000, #74 ) ;
#54 = CARTESIAN_POINT ( 'NONE',  ( 0.0000000000000000000, 0.0000000000000000000, 0.0000000000000000000 ) ) ;
#55 = EDGE_LOOP ( 'NONE', ( #95 ) ) ;
#56 = EDGE_CURVE ( 'NONE', #102, #102, #115, .T. ) ;
#57 = DIRECTION ( 'NONE',  ( -3.491481338843133355E-15, 1.224646799147353207E-16, -1.000000000000000000 ) ) ;
#58 = DIRECTION ( 'NONE',  ( -3.491481338843133355E-15, 1.224646799147353207E-16, -1.000000000000000000 ) ) ;
#59 = FACE_OUTER_BOUND ( 'NONE', #190, .T. ) ;
#60 = CARTESIAN_POINT ( 'NONE',  ( 3.491481338843133355E-14, -1.224646799147353256E-15, 10.00000000000000000 ) ) ;
#61 = APPROVAL_STATUS ( 'not_yet_approved' ) ;
#62 = CALENDAR_DATE ( 2021, 1, 11 ) ;
#63 = AXIS2_PLACEMENT_3D ( 'NONE', #48, #183, #168 ) ;
#64 = CC_DESIGN_APPROVAL ( #171, ( #177 ) ) ;
#65 = CALENDAR_DATE ( 2021, 1, 11 ) ;
#66 = DATE_AND_TIME ( #152, #185 ) ;
#67 = APPROVAL_PERSON_ORGANIZATION ( #164, #97, #77 ) ;
#68 = ADVANCED_BREP_SHAPE_REPRESENTATION ( '41907', ( #7, #149, #63 ), #39 ) ;
#69 = CC_DESIGN_SECURITY_CLASSIFICATION ( #31, ( #177 ) ) ;
#70 = DIRECTION ( 'NONE',  ( 3.491481338843133355E-15, -1.224646799147353207E-16, 1.000000000000000000 ) ) ;
#71 = AXIS2_PLACEMENT_3D ( 'NONE', #60, #134, #111 ) ;
#72 = CARTESIAN_POINT ( 'NONE',  ( 0.0000000000000000000, 0.0000000000000000000, 0.0000000000000000000 ) ) ;
#73 =( NAMED_UNIT ( * ) SI_UNIT ( $, .STERADIAN. ) SOLID_ANGLE_UNIT ( ) );
#74 = COORDINATED_UNIVERSAL_TIME_OFFSET ( 1, 0, .AHEAD. ) ;
#75 = ADVANCED_FACE ( 'NONE', ( #1 ), #5, .T. ) ;
#76 = APPROVAL_PERSON_ORGANIZATION ( #105, #171, #91 ) ;
#77 = APPROVAL_ROLE ( '' ) ;
#78 = CALENDAR_DATE ( 2021, 1, 11 ) ;
#79 = CC_DESIGN_APPROVAL ( #97, ( #81 ) ) ;
#80 = EDGE_LOOP ( 'NONE', ( #126 ) ) ;
#81 = PRODUCT_DEFINITION ( 'UNKNOWN', '', #177, #33 ) ;
#82 = AXIS2_PLACEMENT_3D ( 'NONE', #128, #58, #42 ) ;
#83 = EDGE_LOOP ( 'NONE', ( #157 ) ) ;
#84 = FACE_OUTER_BOUND ( 'NONE', #36, .T. ) ;
#85 = CARTESIAN_POINT ( 'NONE',  ( 3.491481338843133355E-14, 2.999999999999990230, 10.00000000000000000 ) ) ;
#86 = CARTESIAN_POINT ( 'NONE',  ( 3.491481338843133355E-14, 2.249639673992777927E-32, 10.00000000000000000 ) ) ;
#87 = ADVANCED_FACE ( 'NONE', ( #148 ), #88, .F. ) ;
#88 = PLANE ( 'NONE',  #143 ) ;
#89 =( NAMED_UNIT ( * ) PLANE_ANGLE_UNIT ( ) SI_UNIT ( $, .RADIAN. ) );
#90 = CC_DESIGN_APPROVAL ( #188, ( #31 ) ) ;
#91 = APPROVAL_ROLE ( '' ) ;
#92 = PERSON ( 'UNSPECIFIED', 'UNSPECIFIED', 'UNSPECIFIED', ('UNSPECIFIED'), ('UNSPECIFIED'), ('UNSPECIFIED') ) ;
#93 = DATE_TIME_ROLE ( 'creation_date' ) ;
#94 = COORDINATED_UNIVERSAL_TIME_OFFSET ( 1, 0, .AHEAD. ) ;
#95 = ORIENTED_EDGE ( 'NONE', *, *, #4, .F. ) ;
#96 = DIRECTION ( 'NONE',  ( 4.275831445896958607E-31, 1.000000000000000000, 1.224646799147353207E-16 ) ) ;
#97 = APPROVAL ( #49, 'UNSPECIFIED' ) ;
#98 = CARTESIAN_POINT ( 'NONE',  ( 3.491481338843133355E-14, 2.249639673992777927E-32, 10.00000000000000000 ) ) ;
#99 = VERTEX_POINT ( 'NONE', #173 ) ;
#100 = DIRECTION ( 'NONE',  ( 3.491481338843133355E-15, -1.224646799147353207E-16, 1.000000000000000000 ) ) ;
#101 = CC_DESIGN_DATE_AND_TIME_ASSIGNMENT ( #32, #182, ( #31 ) ) ;
#102 = VERTEX_POINT ( 'NONE', #24 ) ;
#103 = APPROVAL_DATE_TIME ( #45, #188 ) ;
#104 = SHAPE_DEFINITION_REPRESENTATION ( #51, #68 ) ;
#105 = PERSON_AND_ORGANIZATION ( #92, #145 ) ;
#106 = APPROVAL_DATE_TIME ( #136, #171 ) ;
#107 = AXIS2_PLACEMENT_3D ( 'NONE', #192, #130, #160 ) ;
#108 = COORDINATED_UNIVERSAL_TIME_OFFSET ( 1, 0, .AHEAD. ) ;
#109 = ORIENTED_EDGE ( 'NONE', *, *, #162, .T. ) ;
#110 = ORIENTED_EDGE ( 'NONE', *, *, #56, .T. ) ;
#111 = DIRECTION ( 'NONE',  ( 0.0000000000000000000, 1.000000000000000000, 0.0000000000000000000 ) ) ;
#112 = CARTESIAN_POINT ( 'NONE',  ( -1.282749722297852494E-30, 4.499280360008248009E-32, -3.673941223821286377E-16 ) ) ;
#113 = DIRECTION ( 'NONE',  ( -3.491481338843133355E-15, 1.224646799147353207E-16, -1.000000000000000000 ) ) ;
#114 = VERTEX_POINT ( 'NONE', #85 ) ;
#115 = CIRCLE ( 'NONE', #46, 2.999999999999996447 ) ;
#116 = DIRECTION ( 'NONE',  ( -4.275831445896958607E-31, -1.000000000000000000, -1.224646799147353207E-16 ) ) ;
#117 = PERSON_AND_ORGANIZATION_ROLE ( 'classification_officer' ) ;
#118 = COORDINATED_UNIVERSAL_TIME_OFFSET ( 1, 0, .AHEAD. ) ;
#119 = CONICAL_SURFACE ( 'NONE', #184, 2.399999999999996803, 0.7853981633974396193 ) ;
#120 = PERSON_AND_ORGANIZATION ( #92, #145 ) ;
#121 = CC_DESIGN_DATE_AND_TIME_ASSIGNMENT ( #66, #93, ( #81 ) ) ;
#122 = UNCERTAINTY_MEASURE_WITH_UNIT (LENGTH_MEASURE( 1.000000000000000082E-05 ), #161, 'distance_accuracy_value', 'NONE');
#123 = EDGE_LOOP ( 'NONE', ( #124 ) ) ;
#124 = ORIENTED_EDGE ( 'NONE', *, *, #144, .T. ) ;
#125 = ORIENTED_EDGE ( 'NONE', *, *, #144, .F. ) ;
#126 = ORIENTED_EDGE ( 'NONE', *, *, #162, .F. ) ;
#127 = ORIENTED_EDGE ( 'NONE', *, *, #135, .T. ) ;
#128 = CARTESIAN_POINT ( 'NONE',  ( -2.565499444595704988E-30, 8.998560720016496019E-32, -7.347882447642572754E-16 ) ) ;
#129 = ADVANCED_FACE ( 'NONE', ( #176 ), #3, .F. ) ;
#130 = DIRECTION ( 'NONE',  ( -3.491481338843133355E-15, 1.224646799147353207E-16, -1.000000000000000000 ) ) ;
#131 = CARTESIAN_POINT ( 'NONE',  ( -1.282750010826621610E-30, 2.999999999999990230, -3.673942050200525212E-16 ) ) ;
#132 = DIRECTION ( 'NONE',  ( -4.275831445896958607E-31, -1.000000000000000000, -1.224646799147353207E-16 ) ) ;
#133 = AXIS2_PLACEMENT_3D ( 'NONE', #25, #113, #20 ) ;
#134 = DIRECTION ( 'NONE',  ( -3.491481338843133355E-15, 1.224646799147353207E-16, -1.000000000000000000 ) ) ;
#135 = EDGE_CURVE ( 'NONE', #40, #40, #167, .T. ) ;
#136 = DATE_AND_TIME ( #65, #53 ) ;
#137 = CC_DESIGN_PERSON_AND_ORGANIZATION_ASSIGNMENT ( #150, #151, ( #37 ) ) ;
#138 = PERSON_AND_ORGANIZATION_ROLE ( 'creator' ) ;
#139 = PERSON_AND_ORGANIZATION ( #92, #145 ) ;
#140 = CALENDAR_DATE ( 2021, 1, 11 ) ;
#141 = EDGE_LOOP ( 'NONE', ( #110 ) ) ;
#142 = CYLINDRICAL_SURFACE ( 'NONE', #156, 2.999999999999990674 ) ;
#143 = AXIS2_PLACEMENT_3D ( 'NONE', #98, #100, #132 ) ;
#144 = EDGE_CURVE ( 'NONE', #21, #21, #193, .T. ) ;
#145 = ORGANIZATION ( 'UNSPECIFIED', 'UNSPECIFIED', '' ) ;
#146 = FACE_OUTER_BOUND ( 'NONE', #80, .T. ) ;
#147 = APPLICATION_CONTEXT ( 'configuration controlled 3d designs of mechanical parts and assemblies' ) ;
#148 = FACE_OUTER_BOUND ( 'NONE', #19, .T. ) ;
#149 = MANIFOLD_SOLID_BREP ( 'Corps-Déplacer/Copier1[2]', #10 ) ;
#150 = PERSON_AND_ORGANIZATION ( #92, #145 ) ;
#151 = PERSON_AND_ORGANIZATION_ROLE ( 'design_owner' ) ;
#152 = CALENDAR_DATE ( 2021, 1, 11 ) ;
#153 = LOCAL_TIME ( 10, 16, 12.00000000000000000, #94 ) ;
#154 = MECHANICAL_CONTEXT ( 'NONE', #194, 'mechanical' ) ;
#155 = DIRECTION ( 'NONE',  ( 0.0000000000000000000, 1.000000000000000000, 0.0000000000000000000 ) ) ;
#156 = AXIS2_PLACEMENT_3D ( 'NONE', #54, #57, #96 ) ;
#157 = ORIENTED_EDGE ( 'NONE', *, *, #4, .T. ) ;
#158 = CC_DESIGN_PERSON_AND_ORGANIZATION_ASSIGNMENT ( #27, #138, ( #81 ) ) ;
#159 = CARTESIAN_POINT ( 'NONE',  ( 1.990144363140586139E-13, -6.980486755139912911E-15, 57.00000000000000000 ) ) ;
#160 = DIRECTION ( 'NONE',  ( 0.0000000000000000000, 1.000000000000000000, 0.0000000000000000000 ) ) ;
#161 =( LENGTH_UNIT ( ) NAMED_UNIT ( * ) SI_UNIT ( .MILLI., .METRE. ) );
#162 = EDGE_CURVE ( 'NONE', #114, #114, #191, .T. ) ;
#163 = DIRECTION ( 'NONE',  ( 0.0000000000000000000, 1.000000000000000000, 0.0000000000000000000 ) ) ;
#164 = PERSON_AND_ORGANIZATION ( #92, #145 ) ;
#165 = APPROVAL_DATE_TIME ( #199, #97 ) ;
#166 = APPLICATION_PROTOCOL_DEFINITION ( 'international standard', 'config_control_design', 1994, #147 ) ;
#167 = CIRCLE ( 'NONE', #82, 2.999999999999990230 ) ;
#168 = DIRECTION ( 'NONE',  ( 1.000000000000000000, 0.0000000000000000000, 0.0000000000000000000 ) ) ;
#169 = ADVANCED_FACE ( 'NONE', ( #84 ), #44, .F. ) ;
#170 = APPROVAL_PERSON_ORGANIZATION ( #120, #188, #181 ) ;
#171 = APPROVAL ( #9, 'UNSPECIFIED' ) ;
#172 = ORIENTED_EDGE ( 'NONE', *, *, #135, .F. ) ;
#173 = CARTESIAN_POINT ( 'NONE',  ( 3.491481338843133355E-14, 2.999999999999990230, 10.00000000000000000 ) ) ;
#174 = CC_DESIGN_PERSON_AND_ORGANIZATION_ASSIGNMENT ( #30, #8, ( #177 ) ) ;
#175 = CYLINDRICAL_SURFACE ( 'NONE', #50, 2.999999999999993783 ) ;
#176 = FACE_OUTER_BOUND ( 'NONE', #187, .T. ) ;
#177 = PRODUCT_DEFINITION_FORMATION_WITH_SPECIFIED_SOURCE ( 'ANY', '', #37, .NOT_KNOWN. ) ;
#178 = CARTESIAN_POINT ( 'NONE',  ( 1.990144363140586139E-13, 2.399999999999989697, 57.00000000000000000 ) ) ;
#179 = ADVANCED_FACE ( 'NONE', ( #146, #23 ), #175, .T. ) ;
#180 = FACE_BOUND ( 'NONE', #123, .T. ) ;
#181 = APPROVAL_ROLE ( '' ) ;
#182 = DATE_TIME_ROLE ( 'classification_date' ) ;
#183 = DIRECTION ( 'NONE',  ( 0.0000000000000000000, 0.0000000000000000000, 1.000000000000000000 ) ) ;
#184 = AXIS2_PLACEMENT_3D ( 'NONE', #159, #43, #163 ) ;
#185 = LOCAL_TIME ( 10, 16, 12.00000000000000000, #118 ) ;
#186 = ADVANCED_FACE ( 'NONE', ( #59, #180 ), #119, .T. ) ;
#187 = EDGE_LOOP ( 'NONE', ( #127 ) ) ;
#188 = APPROVAL ( #61, 'UNSPECIFIED' ) ;
#189 = DIRECTION ( 'NONE',  ( -3.491481338843133355E-15, 1.224646799147353207E-16, -1.000000000000000000 ) ) ;
#190 = EDGE_LOOP ( 'NONE', ( #34 ) ) ;
#191 = CIRCLE ( 'NONE', #71, 2.999999999999991562 ) ;
#192 = CARTESIAN_POINT ( 'NONE',  ( 1.990144363140586139E-13, -6.980486755139912911E-15, 57.00000000000000000 ) ) ;
#193 = CIRCLE ( 'NONE', #107, 2.399999999999996803 ) ;
#194 = APPLICATION_CONTEXT ( 'configuration controlled 3d designs of mechanical parts and assemblies' ) ;
#195 = DIRECTION ( 'NONE',  ( 4.275831445896958607E-31, 1.000000000000000000, 1.224646799147353454E-16 ) ) ;
#196 = DIRECTION ( 'NONE',  ( -4.275831445896958607E-31, -1.000000000000000000, -1.224646799147353207E-16 ) ) ;
#197 = SECURITY_CLASSIFICATION_LEVEL ( 'unclassified' ) ;
#198 = PERSON_AND_ORGANIZATION_ROLE ( 'creator' ) ;
#199 = DATE_AND_TIME ( #62, #6 ) ;
#200 = PRODUCT_RELATED_PRODUCT_CATEGORY ( 'detail', '', ( #37 ) ) ;
#201 = EDGE_LOOP ( 'NONE', ( #172 ) ) ;
#202 = AXIS2_PLACEMENT_3D ( 'NONE', #17, #189, #155 ) ;
#203 = DIRECTION ( 'NONE',  ( 0.0000000000000000000, 1.000000000000000000, 0.0000000000000000000 ) ) ;
ENDSEC;
END-ISO-10303-21;
