ISO-10303-21;
HEADER;
FILE_DESCRIPTION (( 'STEP AP203' ),
    '1' );
FILE_NAME ('41881.step',
    '2021-11-15T14:31:26',
    ( '' ),
    ( '' ),
    'SwSTEP 2.0',
    'SolidWorks 2019',
    '' );
FILE_SCHEMA (( 'CONFIG_CONTROL_DESIGN' ));
ENDSEC;

DATA;
#1 = ADVANCED_FACE ( 'NONE', ( #200 ), #112, .F. ) ;
#2 = DIRECTION ( 'NONE',  ( 3.491481338843133355E-15, -1.244996138440932305E-16, 1.000000000000000000 ) ) ;
#3 = ORIENTED_EDGE ( 'NONE', *, *, #57, .T. ) ;
#4 = DIRECTION ( 'NONE',  ( 3.491481338843133355E-15, -1.224646799147353207E-16, 1.000000000000000000 ) ) ;
#5 = EDGE_CURVE ( 'NONE', #32, #32, #107, .T. ) ;
#6 = CARTESIAN_POINT ( 'NONE',  ( 1.972686956446370283E-13, -6.919254415182544548E-15, 56.49999999999999289 ) ) ;
#7 = ADVANCED_FACE ( 'NONE', ( #15, #110 ), #91, .T. ) ;
#8 = DIRECTION ( 'NONE',  ( -4.346880784298277610E-31, -1.000000000000000000, -1.244996138440932305E-16 ) ) ;
#9 =( LENGTH_UNIT ( ) NAMED_UNIT ( * ) SI_UNIT ( .MILLI., .METRE. ) );
#10 = APPROVAL_ROLE ( '' ) ;
#11 = MECHANICAL_CONTEXT ( 'NONE', #204, 'mechanical' ) ;
#12 = SHAPE_DEFINITION_REPRESENTATION ( #33, #115 ) ;
#13 = FACE_OUTER_BOUND ( 'NONE', #218, .T. ) ;
#14 = AXIS2_PLACEMENT_3D ( 'NONE', #20, #97, #136 ) ;
#15 = FACE_OUTER_BOUND ( 'NONE', #72, .T. ) ;
#16 = DIRECTION ( 'NONE',  ( 3.491481338843133355E-15, -1.224646799147353207E-16, 1.000000000000000000 ) ) ;
#17 = CC_DESIGN_APPROVAL ( #123, ( #49 ) ) ;
#18 = CARTESIAN_POINT ( 'NONE',  ( -2.173440392149138805E-30, -2.500000000000000000, -6.224980692204661034E-16 ) ) ;
#19 = VERTEX_POINT ( 'NONE', #18 ) ;
#20 = CARTESIAN_POINT ( 'NONE',  ( 1.990144363140586139E-13, 1.874699728327309420E-32, 57.00000000000000000 ) ) ;
#21 = EDGE_CURVE ( 'NONE', #96, #96, #31, .T. ) ;
#22 = DIRECTION ( 'NONE',  ( 3.491481338843133355E-15, -1.244996138440932305E-16, 1.000000000000000000 ) ) ;
#23 = PERSON ( 'UNSPECIFIED', 'UNSPECIFIED', 'UNSPECIFIED', ('UNSPECIFIED'), ('UNSPECIFIED'), ('UNSPECIFIED') ) ;
#24 = DATE_AND_TIME ( #154, #167 ) ;
#25 = DESIGN_CONTEXT ( 'detailed design', #29, 'design' ) ;
#26 = AXIS2_PLACEMENT_3D ( 'NONE', #137, #77, #119 ) ;
#27 = CC_DESIGN_DATE_AND_TIME_ASSIGNMENT ( #196, #217, ( #190 ) ) ;
#28 = EDGE_LOOP ( 'NONE', ( #164 ) ) ;
#29 = APPLICATION_CONTEXT ( 'configuration controlled 3d designs of mechanical parts and assemblies' ) ;
#30 = FACE_OUTER_BOUND ( 'NONE', #130, .T. ) ;
#31 = CIRCLE ( 'NONE', #184, 2.500000000000000444 ) ;
#32 = VERTEX_POINT ( 'NONE', #34 ) ;
#33 = PRODUCT_DEFINITION_SHAPE ( 'NONE', 'NONE',  #49 ) ;
#34 = CARTESIAN_POINT ( 'NONE',  ( 4.538925740496072731E-14, -2.500000000000002220, 12.99999999999999822 ) ) ;
#35 = FACE_BOUND ( 'NONE', #83, .T. ) ;
#36 = AXIS2_PLACEMENT_3D ( 'NONE', #116, #22, #8 ) ;
#37 = COORDINATED_UNIVERSAL_TIME_OFFSET ( 1, 0, .AHEAD. ) ;
#38 = CYLINDRICAL_SURFACE ( 'NONE', #170, 2.500000000000000444 ) ;
#39 = ADVANCED_FACE ( 'NONE', ( #13, #75 ), #220, .F. ) ;
#40 = PERSON_AND_ORGANIZATION ( #23, #85 ) ;
#41 = EDGE_CURVE ( 'NONE', #172, #172, #145, .T. ) ;
#42 = APPROVAL_DATE_TIME ( #58, #211 ) ;
#43 = DATE_AND_TIME ( #198, #140 ) ;
#44 =( NAMED_UNIT ( * ) SI_UNIT ( $, .STERADIAN. ) SOLID_ANGLE_UNIT ( ) );
#45 = ORIENTED_EDGE ( 'NONE', *, *, #128, .F. ) ;
#46 = APPROVAL ( #212, 'UNSPECIFIED' ) ;
#47 = APPROVAL_PERSON_ORGANIZATION ( #179, #46, #125 ) ;
#48 = EDGE_LOOP ( 'NONE', ( #101 ) ) ;
#49 = PRODUCT_DEFINITION ( 'UNKNOWN', '', #61, #25 ) ;
#50 = CARTESIAN_POINT ( 'NONE',  ( 4.538925740496072731E-14, -1.618494979973211750E-15, 12.99999999999999822 ) ) ;
#51 = DIRECTION ( 'NONE',  ( 0.0000000000000000000, -1.000000000000000000, 0.0000000000000000000 ) ) ;
#52 = DIRECTION ( 'NONE',  ( -4.275831445896958607E-31, -1.000000000000000000, -1.224646799147353207E-16 ) ) ;
#53 = AXIS2_PLACEMENT_3D ( 'NONE', #62, #153, #183 ) ;
#54 = DIRECTION ( 'NONE',  ( 3.491481338843133355E-15, -1.244996138440932305E-16, 1.000000000000000000 ) ) ;
#55 = CARTESIAN_POINT ( 'NONE',  ( 4.538925740496072731E-14, -2.500000000000002220, 12.99999999999999822 ) ) ;
#56 = SECURITY_CLASSIFICATION_LEVEL ( 'unclassified' ) ;
#57 = EDGE_CURVE ( 'NONE', #192, #192, #174, .T. ) ;
#58 = DATE_AND_TIME ( #104, #66 ) ;
#59 = COORDINATED_UNIVERSAL_TIME_OFFSET ( 1, 0, .AHEAD. ) ;
#60 = AXIS2_PLACEMENT_3D ( 'NONE', #169, #207, #156 ) ;
#61 = PRODUCT_DEFINITION_FORMATION_WITH_SPECIFIED_SOURCE ( 'ANY', '', #141, .NOT_KNOWN. ) ;
#62 = CARTESIAN_POINT ( 'NONE',  ( 1.990144363140586139E-13, -6.980486755139912911E-15, 57.00000000000000000 ) ) ;
#63 = PLANE ( 'NONE',  #14 ) ;
#64 = CC_DESIGN_PERSON_AND_ORGANIZATION_ASSIGNMENT ( #124, #193, ( #190 ) ) ;
#65 = FACE_OUTER_BOUND ( 'NONE', #163, .T. ) ;
#66 = LOCAL_TIME ( 15, 31, 26.00000000000000000, #68 ) ;
#67 = CARTESIAN_POINT ( 'NONE',  ( 0.0000000000000000000, 0.0000000000000000000, 0.0000000000000000000 ) ) ;
#68 = COORDINATED_UNIVERSAL_TIME_OFFSET ( 1, 0, .AHEAD. ) ;
#69 = PERSON_AND_ORGANIZATION ( #23, #85 ) ;
#70 = AXIS2_PLACEMENT_3D ( 'NONE', #120, #188, #99 ) ;
#71 = EDGE_LOOP ( 'NONE', ( #150 ) ) ;
#72 = EDGE_LOOP ( 'NONE', ( #131 ) ) ;
#73 = CC_DESIGN_DATE_AND_TIME_ASSIGNMENT ( #43, #106, ( #49 ) ) ;
#74 = APPROVAL_PERSON_ORGANIZATION ( #177, #211, #10 ) ;
#75 = FACE_OUTER_BOUND ( 'NONE', #222, .T. ) ;
#76 = FACE_OUTER_BOUND ( 'NONE', #71, .T. ) ;
#77 = DIRECTION ( 'NONE',  ( 3.491481338843133355E-15, -1.224646799147353207E-16, 1.000000000000000000 ) ) ;
#78 = ADVANCED_FACE ( 'NONE', ( #30, #35 ), #216, .T. ) ;
#79 = DIRECTION ( 'NONE',  ( 0.0000000000000000000, 0.0000000000000000000, 1.000000000000000000 ) ) ;
#80 = COORDINATED_UNIVERSAL_TIME_OFFSET ( 1, 0, .AHEAD. ) ;
#81 = MANIFOLD_SOLID_BREP ( 'Corps-Déplacer/Copier1[1]', #189 ) ;
#82 = PRODUCT_RELATED_PRODUCT_CATEGORY ( 'detail', '', ( #141 ) ) ;
#83 = EDGE_LOOP ( 'NONE', ( #92 ) ) ;
#84 = ORIENTED_EDGE ( 'NONE', *, *, #5, .T. ) ;
#85 = ORGANIZATION ( 'UNSPECIFIED', 'UNSPECIFIED', '' ) ;
#86 = MANIFOLD_SOLID_BREP ( 'Corps-Déplacer/Copier1[2]', #129 ) ;
#87 = PERSON_AND_ORGANIZATION ( #23, #85 ) ;
#88 = DATE_AND_TIME ( #121, #98 ) ;
#89 = CIRCLE ( 'NONE', #36, 2.500000000000000000 ) ;
#90 = EDGE_LOOP ( 'NONE', ( #45 ) ) ;
#91 = CYLINDRICAL_SURFACE ( 'NONE', #157, 2.999999999999993783 ) ;
#92 = ORIENTED_EDGE ( 'NONE', *, *, #41, .T. ) ;
#93 = CC_DESIGN_APPROVAL ( #211, ( #190 ) ) ;
#94 = CARTESIAN_POINT ( 'NONE',  ( 1.990144363140586139E-13, 2.499999999999990230, 57.00000000000000000 ) ) ;
#95 = VERTEX_POINT ( 'NONE', #194 ) ;
#96 = VERTEX_POINT ( 'NONE', #55 ) ;
#97 = DIRECTION ( 'NONE',  ( -3.491481338843133355E-15, 1.224646799147353207E-16, -1.000000000000000000 ) ) ;
#98 = LOCAL_TIME ( 15, 31, 26.00000000000000000, #37 ) ;
#99 = DIRECTION ( 'NONE',  ( 0.0000000000000000000, 1.000000000000000000, 0.0000000000000000000 ) ) ;
#100 = CC_DESIGN_PERSON_AND_ORGANIZATION_ASSIGNMENT ( #187, #210, ( #61 ) ) ;
#101 = ORIENTED_EDGE ( 'NONE', *, *, #128, .T. ) ;
#102 = APPROVAL_PERSON_ORGANIZATION ( #40, #123, #178 ) ;
#103 = UNCERTAINTY_MEASURE_WITH_UNIT (LENGTH_MEASURE( 1.000000000000000082E-05 ), #9, 'distance_accuracy_value', 'NONE');
#104 = CALENDAR_DATE ( 2021, 15, 11 ) ;
#105 = APPROVAL_STATUS ( 'not_yet_approved' ) ;
#106 = DATE_TIME_ROLE ( 'creation_date' ) ;
#107 = CIRCLE ( 'NONE', #139, 2.500000000000000444 ) ;
#108 = AXIS2_PLACEMENT_3D ( 'NONE', #152, #4, #52 ) ;
#109 = EDGE_LOOP ( 'NONE', ( #84 ) ) ;
#110 = FACE_OUTER_BOUND ( 'NONE', #28, .T. ) ;
#111 = CARTESIAN_POINT ( 'NONE',  ( 4.538925740496072731E-14, -1.618494979973211750E-15, 12.99999999999999822 ) ) ;
#112 = PLANE ( 'NONE',  #209 ) ;
#113 = CC_DESIGN_PERSON_AND_ORGANIZATION_ASSIGNMENT ( #69, #215, ( #141 ) ) ;
#114 = CARTESIAN_POINT ( 'NONE',  ( 0.0000000000000000000, 0.0000000000000000000, 0.0000000000000000000 ) ) ;
#115 = ADVANCED_BREP_SHAPE_REPRESENTATION ( '41881', ( #81, #86, #205 ), #158 ) ;
#116 = CARTESIAN_POINT ( 'NONE',  ( -1.086720196074569403E-30, 3.875038461832082960E-32, -3.112490346102330517E-16 ) ) ;
#117 = ADVANCED_FACE ( 'NONE', ( #76 ), #63, .F. ) ;
#118 = AXIS2_PLACEMENT_3D ( 'NONE', #201, #223, #135 ) ;
#119 = DIRECTION ( 'NONE',  ( -4.275831445896958607E-31, -1.000000000000000000, -1.224646799147353207E-16 ) ) ;
#120 = CARTESIAN_POINT ( 'NONE',  ( 5.510913009090909768E-14, -2.081315732550426400E-15, 15.78388218141499344 ) ) ;
#121 = CALENDAR_DATE ( 2021, 15, 11 ) ;
#122 = PLANE ( 'NONE',  #26 ) ;
#123 = APPROVAL ( #105, 'UNSPECIFIED' ) ;
#124 = PERSON_AND_ORGANIZATION ( #23, #85 ) ;
#125 = APPROVAL_ROLE ( '' ) ;
#126 = CC_DESIGN_SECURITY_CLASSIFICATION ( #190, ( #61 ) ) ;
#127 = PERSON_AND_ORGANIZATION_ROLE ( 'creator' ) ;
#128 = EDGE_CURVE ( 'NONE', #19, #19, #89, .T. ) ;
#129 = CLOSED_SHELL ( 'NONE', ( #146, #197, #161 ) ) ;
#130 = EDGE_LOOP ( 'NONE', ( #219 ) ) ;
#131 = ORIENTED_EDGE ( 'NONE', *, *, #175, .T. ) ;
#132 = CARTESIAN_POINT ( 'NONE',  ( 4.538925740496073362E-14, 2.249639673992777654E-32, 13.00000000000000000 ) ) ;
#133 = ORIENTED_EDGE ( 'NONE', *, *, #5, .F. ) ;
#134 = FACE_OUTER_BOUND ( 'NONE', #109, .T. ) ;
#135 = DIRECTION ( 'NONE',  ( -4.404297637062081908E-31, -1.000000000000000000, -1.244996138440932305E-16 ) ) ;
#136 = DIRECTION ( 'NONE',  ( 4.275831445896958607E-31, 1.000000000000000000, 1.224646799147353207E-16 ) ) ;
#137 = CARTESIAN_POINT ( 'NONE',  ( -1.282751684303709334E-30, 4.499287241798408962E-32, -3.673946843229401450E-16 ) ) ;
#138 = FACE_OUTER_BOUND ( 'NONE', #48, .T. ) ;
#139 = AXIS2_PLACEMENT_3D ( 'NONE', #50, #166, #51 ) ;
#140 = LOCAL_TIME ( 15, 31, 26.00000000000000000, #59 ) ;
#141 = PRODUCT ( '41881', '41881', '', ( #11 ) ) ;
#142 = CALENDAR_DATE ( 2021, 15, 11 ) ;
#143 = CC_DESIGN_PERSON_AND_ORGANIZATION_ASSIGNMENT ( #87, #159, ( #61 ) ) ;
#144 = DIRECTION ( 'NONE',  ( 0.0000000000000000000, -1.000000000000000000, 0.0000000000000000000 ) ) ;
#145 = CIRCLE ( 'NONE', #53, 2.499999999999996891 ) ;
#146 = ADVANCED_FACE ( 'NONE', ( #134 ), #203, .T. ) ;
#147 = ORIENTED_EDGE ( 'NONE', *, *, #21, .F. ) ;
#148 = DIRECTION ( 'NONE',  ( -3.491481338843133355E-15, 1.224646799147353207E-16, -1.000000000000000000 ) ) ;
#149 = AXIS2_PLACEMENT_3D ( 'NONE', #6, #185, #206 ) ;
#150 = ORIENTED_EDGE ( 'NONE', *, *, #41, .F. ) ;
#151 = FACE_OUTER_BOUND ( 'NONE', #90, .T. ) ;
#152 = CARTESIAN_POINT ( 'NONE',  ( 4.538925740496073362E-14, 2.249639673992777654E-32, 13.00000000000000000 ) ) ;
#153 = DIRECTION ( 'NONE',  ( -3.491481338843133355E-15, 1.224646799147353207E-16, -1.000000000000000000 ) ) ;
#154 = CALENDAR_DATE ( 2021, 15, 11 ) ;
#155 = PERSON_AND_ORGANIZATION ( #23, #85 ) ;
#156 = DIRECTION ( 'NONE',  ( 0.0000000000000000000, 1.000000000000000000, 0.0000000000000000000 ) ) ;
#157 = AXIS2_PLACEMENT_3D ( 'NONE', #114, #148, #180 ) ;
#158 =( GEOMETRIC_REPRESENTATION_CONTEXT ( 3 ) GLOBAL_UNCERTAINTY_ASSIGNED_CONTEXT ( ( #103 ) ) GLOBAL_UNIT_ASSIGNED_CONTEXT ( ( #9, #214, #44 ) ) REPRESENTATION_CONTEXT ( 'NONE', 'WORKASPACE' ) );
#159 = PERSON_AND_ORGANIZATION_ROLE ( 'creator' ) ;
#160 = DIRECTION ( 'NONE',  ( 1.000000000000000000, 0.0000000000000000000, 0.0000000000000000000 ) ) ;
#161 = ADVANCED_FACE ( 'NONE', ( #151 ), #122, .F. ) ;
#162 = LOCAL_TIME ( 15, 31, 26.00000000000000000, #173 ) ;
#163 = EDGE_LOOP ( 'NONE', ( #133 ) ) ;
#164 = ORIENTED_EDGE ( 'NONE', *, *, #57, .F. ) ;
#165 = ORIENTED_EDGE ( 'NONE', *, *, #21, .T. ) ;
#166 = DIRECTION ( 'NONE',  ( 3.491481338843133355E-15, -1.244996138440932305E-16, 1.000000000000000000 ) ) ;
#167 = LOCAL_TIME ( 15, 31, 26.00000000000000000, #80 ) ;
#168 = CARTESIAN_POINT ( 'NONE',  ( 5.510913009090909768E-14, 2.999999999999992006, 15.78388218141499344 ) ) ;
#169 = CARTESIAN_POINT ( 'NONE',  ( 1.990144363140586139E-13, -6.980486755139912911E-15, 57.00000000000000000 ) ) ;
#170 = AXIS2_PLACEMENT_3D ( 'NONE', #202, #54, #186 ) ;
#171 = APPROVAL_DATE_TIME ( #88, #123 ) ;
#172 = VERTEX_POINT ( 'NONE', #94 ) ;
#173 = COORDINATED_UNIVERSAL_TIME_OFFSET ( 1, 0, .AHEAD. ) ;
#174 = CIRCLE ( 'NONE', #70, 2.999999999999993783 ) ;
#175 = EDGE_CURVE ( 'NONE', #95, #95, #195, .T. ) ;
#176 = APPLICATION_PROTOCOL_DEFINITION ( 'international standard', 'config_control_design', 1994, #204 ) ;
#177 = PERSON_AND_ORGANIZATION ( #23, #85 ) ;
#178 = APPROVAL_ROLE ( '' ) ;
#179 = PERSON_AND_ORGANIZATION ( #23, #85 ) ;
#180 = DIRECTION ( 'NONE',  ( 4.275831445896958607E-31, 1.000000000000000000, 1.224646799147353454E-16 ) ) ;
#181 = DIRECTION ( 'NONE',  ( -4.275831445896958607E-31, -1.000000000000000000, -1.224646799147353207E-16 ) ) ;
#182 = CC_DESIGN_PERSON_AND_ORGANIZATION_ASSIGNMENT ( #155, #127, ( #49 ) ) ;
#183 = DIRECTION ( 'NONE',  ( 0.0000000000000000000, 1.000000000000000000, 0.0000000000000000000 ) ) ;
#184 = AXIS2_PLACEMENT_3D ( 'NONE', #111, #2, #144 ) ;
#185 = DIRECTION ( 'NONE',  ( -3.491481338843133355E-15, 1.224646799147353207E-16, -1.000000000000000000 ) ) ;
#186 = DIRECTION ( 'NONE',  ( -4.346880784298277610E-31, -1.000000000000000000, -1.244996138440932305E-16 ) ) ;
#187 = PERSON_AND_ORGANIZATION ( #23, #85 ) ;
#188 = DIRECTION ( 'NONE',  ( -3.491481338843133355E-15, 1.244996138440932305E-16, -1.000000000000000000 ) ) ;
#189 = CLOSED_SHELL ( 'NONE', ( #7, #78, #117, #39, #1 ) ) ;
#190 = SECURITY_CLASSIFICATION ( '', '', #56 ) ;
#191 = APPLICATION_PROTOCOL_DEFINITION ( 'international standard', 'config_control_design', 1994, #29 ) ;
#192 = VERTEX_POINT ( 'NONE', #168 ) ;
#193 = PERSON_AND_ORGANIZATION_ROLE ( 'classification_officer' ) ;
#194 = CARTESIAN_POINT ( 'NONE',  ( 1.972686956446370283E-13, 2.999999999999989786, 56.49999999999999289 ) ) ;
#195 = CIRCLE ( 'NONE', #149, 2.999999999999996447 ) ;
#196 = DATE_AND_TIME ( #142, #162 ) ;
#197 = ADVANCED_FACE ( 'NONE', ( #138, #65 ), #38, .T. ) ;
#198 = CALENDAR_DATE ( 2021, 15, 11 ) ;
#199 = EDGE_LOOP ( 'NONE', ( #147 ) ) ;
#200 = FACE_OUTER_BOUND ( 'NONE', #199, .T. ) ;
#201 = CARTESIAN_POINT ( 'NONE',  ( 4.538925740496072731E-14, -1.734723475976807094E-15, 12.99999999999999822 ) ) ;
#202 = CARTESIAN_POINT ( 'NONE',  ( 0.0000000000000000000, 0.0000000000000000000, 0.0000000000000000000 ) ) ;
#203 = PLANE ( 'NONE',  #108 ) ;
#204 = APPLICATION_CONTEXT ( 'configuration controlled 3d designs of mechanical parts and assemblies' ) ;
#205 = AXIS2_PLACEMENT_3D ( 'NONE', #67, #79, #160 ) ;
#206 = DIRECTION ( 'NONE',  ( 0.0000000000000000000, 1.000000000000000000, 0.0000000000000000000 ) ) ;
#207 = DIRECTION ( 'NONE',  ( -3.491481338843133355E-15, 1.224646799147353207E-16, -1.000000000000000000 ) ) ;
#208 = APPROVAL_DATE_TIME ( #24, #46 ) ;
#209 = AXIS2_PLACEMENT_3D ( 'NONE', #132, #16, #181 ) ;
#210 = PERSON_AND_ORGANIZATION_ROLE ( 'design_supplier' ) ;
#211 = APPROVAL ( #213, 'UNSPECIFIED' ) ;
#212 = APPROVAL_STATUS ( 'not_yet_approved' ) ;
#213 = APPROVAL_STATUS ( 'not_yet_approved' ) ;
#214 =( NAMED_UNIT ( * ) PLANE_ANGLE_UNIT ( ) SI_UNIT ( $, .RADIAN. ) );
#215 = PERSON_AND_ORGANIZATION_ROLE ( 'design_owner' ) ;
#216 = CONICAL_SURFACE ( 'NONE', #60, 2.499999999999996891, 0.7853981633974405074 ) ;
#217 = DATE_TIME_ROLE ( 'classification_date' ) ;
#218 = EDGE_LOOP ( 'NONE', ( #165 ) ) ;
#219 = ORIENTED_EDGE ( 'NONE', *, *, #175, .F. ) ;
#220 = TOROIDAL_SURFACE ( 'NONE', #118, 10.49999999999999822, 8.000000000000000000 ) ;
#221 = CC_DESIGN_APPROVAL ( #46, ( #61 ) ) ;
#222 = EDGE_LOOP ( 'NONE', ( #3 ) ) ;
#223 = DIRECTION ( 'NONE',  ( 3.491481338843133355E-15, -1.244996138440932305E-16, 1.000000000000000000 ) ) ;
ENDSEC;
END-ISO-10303-21;
