ISO-10303-21;
HEADER;
FILE_DESCRIPTION (( 'STEP AP203' ),
    '1' );
FILE_NAME ('41880.step',
    '2021-11-01T10:35:11',
    ( '' ),
    ( '' ),
    'SwSTEP 2.0',
    'SolidWorks 2019',
    '' );
FILE_SCHEMA (( 'CONFIG_CONTROL_DESIGN' ));
ENDSEC;

DATA;
#1 = UNCERTAINTY_MEASURE_WITH_UNIT (LENGTH_MEASURE( 1.000000000000000082E-05 ), #28, 'distance_accuracy_value', 'NONE');
#2 = DIRECTION ( 'NONE',  ( 3.491481338843133355E-15, -1.227517819005651059E-16, 1.000000000000000000 ) ) ;
#3 = APPROVAL_PERSON_ORGANIZATION ( #10, #186, #120 ) ;
#4 = ADVANCED_FACE ( 'NONE', ( #79 ), #16, .T. ) ;
#5 = FACE_OUTER_BOUND ( 'NONE', #121, .T. ) ;
#6 = DIRECTION ( 'NONE',  ( -4.344867323496230065E-31, -1.000000000000000000, -1.227517819005651059E-16 ) ) ;
#7 = FACE_OUTER_BOUND ( 'NONE', #108, .T. ) ;
#8 = FACE_OUTER_BOUND ( 'NONE', #123, .T. ) ;
#9 = PERSON_AND_ORGANIZATION_ROLE ( 'design_owner' ) ;
#10 = PERSON_AND_ORGANIZATION ( #206, #88 ) ;
#11 = EDGE_CURVE ( 'NONE', #138, #138, #132, .T. ) ;
#12 = DIRECTION ( 'NONE',  ( 1.000000000000000000, 0.0000000000000000000, 0.0000000000000000000 ) ) ;
#13 = APPLICATION_PROTOCOL_DEFINITION ( 'international standard', 'config_control_design', 1994, #182 ) ;
#14 = AXIS2_PLACEMENT_3D ( 'NONE', #25, #65, #193 ) ;
#15 = AXIS2_PLACEMENT_3D ( 'NONE', #63, #196, #6 ) ;
#16 = PLANE ( 'NONE',  #50 ) ;
#17 = CONICAL_SURFACE ( 'NONE', #29, 2.599999999999999201, 0.7853981633974602694 ) ;
#18 = APPROVAL_DATE_TIME ( #94, #45 ) ;
#19 = EDGE_LOOP ( 'NONE', ( #35 ) ) ;
#20 = CARTESIAN_POINT ( 'NONE',  ( 2.793185071074506684E-14, 2.249639673992780117E-32, 8.000000000000000000 ) ) ;
#21 = PRODUCT_DEFINITION ( 'UNKNOWN', '', #163, #195 ) ;
#22 = DIRECTION ( 'NONE',  ( -4.285855558155652404E-31, -1.000000000000000000, -1.227517819005651059E-16 ) ) ;
#23 = FACE_OUTER_BOUND ( 'NONE', #19, .T. ) ;
#24 = DIRECTION ( 'NONE',  ( 0.0000000000000000000, 1.000000000000000000, 0.0000000000000000000 ) ) ;
#25 = CARTESIAN_POINT ( 'NONE',  ( 1.990144363140586139E-13, 1.949687717460403943E-32, 57.00000000000000000 ) ) ;
#26 = LOCAL_TIME ( 11, 35, 11.00000000000000000, #30 ) ;
#27 = PERSON_AND_ORGANIZATION ( #206, #88 ) ;
#28 =( LENGTH_UNIT ( ) NAMED_UNIT ( * ) SI_UNIT ( .MILLI., .METRE. ) );
#29 = AXIS2_PLACEMENT_3D ( 'NONE', #129, #126, #197 ) ;
#30 = COORDINATED_UNIVERSAL_TIME_OFFSET ( 1, 0, .AHEAD. ) ;
#31 = CC_DESIGN_PERSON_AND_ORGANIZATION_ASSIGNMENT ( #145, #69, ( #163 ) ) ;
#32 = CIRCLE ( 'NONE', #51, 2.599999999999999201 ) ;
#33 = ADVANCED_FACE ( 'NONE', ( #158, #87 ), #17, .T. ) ;
#34 = ORIENTED_EDGE ( 'NONE', *, *, #83, .F. ) ;
#35 = ORIENTED_EDGE ( 'NONE', *, *, #192, .T. ) ;
#36 = CC_DESIGN_APPROVAL ( #186, ( #163 ) ) ;
#37 = FACE_OUTER_BOUND ( 'NONE', #125, .T. ) ;
#38 = DIRECTION ( 'NONE',  ( 3.491481338843133355E-15, -1.224646799147353207E-16, 1.000000000000000000 ) ) ;
#39 = DIRECTION ( 'NONE',  ( 0.0000000000000000000, -1.000000000000000000, 0.0000000000000000000 ) ) ;
#40 = EDGE_CURVE ( 'NONE', #212, #212, #156, .T. ) ;
#41 = DIRECTION ( 'NONE',  ( -3.491481338843133355E-15, 1.224646799147353207E-16, -1.000000000000000000 ) ) ;
#42 = FACE_OUTER_BOUND ( 'NONE', #210, .T. ) ;
#43 = APPROVAL_DATE_TIME ( #47, #160 ) ;
#44 =( NAMED_UNIT ( * ) PLANE_ANGLE_UNIT ( ) SI_UNIT ( $, .RADIAN. ) );
#45 = APPROVAL ( #52, 'UNSPECIFIED' ) ;
#46 = ADVANCED_BREP_SHAPE_REPRESENTATION ( '41880', ( #142, #220, #54 ), #86 ) ;
#47 = DATE_AND_TIME ( #105, #75 ) ;
#48 = CARTESIAN_POINT ( 'NONE',  ( 1.976178437785213858E-13, 2.999999999999992450, 56.60000000000000853 ) ) ;
#49 = CALENDAR_DATE ( 2021, 1, 11 ) ;
#50 = AXIS2_PLACEMENT_3D ( 'NONE', #95, #136, #155 ) ;
#51 = AXIS2_PLACEMENT_3D ( 'NONE', #181, #100, #178 ) ;
#52 = APPROVAL_STATUS ( 'not_yet_approved' ) ;
#53 = CARTESIAN_POINT ( 'NONE',  ( 2.793185071074506053E-14, -9.820142552045206497E-16, 7.999999999999998224 ) ) ;
#54 = AXIS2_PLACEMENT_3D ( 'NONE', #184, #169, #12 ) ;
#55 = CALENDAR_DATE ( 2021, 1, 11 ) ;
#56 = ORIENTED_EDGE ( 'NONE', *, *, #192, .F. ) ;
#57 = APPROVAL_ROLE ( '' ) ;
#58 = EDGE_LOOP ( 'NONE', ( #93 ) ) ;
#59 = CC_DESIGN_PERSON_AND_ORGANIZATION_ASSIGNMENT ( #135, #134, ( #71 ) ) ;
#60 = AXIS2_PLACEMENT_3D ( 'NONE', #162, #183, #84 ) ;
#61 = VERTEX_POINT ( 'NONE', #128 ) ;
#62 = PRODUCT ( '41880', '41880', '', ( #89 ) ) ;
#63 = CARTESIAN_POINT ( 'NONE',  ( 2.793185071074506053E-14, -1.734723475976807094E-15, 7.999999999999998224 ) ) ;
#64 = CC_DESIGN_PERSON_AND_ORGANIZATION_ASSIGNMENT ( #167, #9, ( #62 ) ) ;
#65 = DIRECTION ( 'NONE',  ( -3.491481338843133355E-15, 1.224646799147353207E-16, -1.000000000000000000 ) ) ;
#66 = DIRECTION ( 'NONE',  ( 0.0000000000000000000, -1.000000000000000000, 0.0000000000000000000 ) ) ;
#67 = AXIS2_PLACEMENT_3D ( 'NONE', #85, #112, #180 ) ;
#68 = CALENDAR_DATE ( 2021, 1, 11 ) ;
#69 = PERSON_AND_ORGANIZATION_ROLE ( 'creator' ) ;
#70 = ADVANCED_FACE ( 'NONE', ( #216 ), #101, .F. ) ;
#71 = SECURITY_CLASSIFICATION ( '', '', #73 ) ;
#72 = PERSON_AND_ORGANIZATION_ROLE ( 'design_supplier' ) ;
#73 = SECURITY_CLASSIFICATION_LEVEL ( 'unclassified' ) ;
#74 = COORDINATED_UNIVERSAL_TIME_OFFSET ( 1, 0, .AHEAD. ) ;
#75 = LOCAL_TIME ( 11, 35, 11.00000000000000000, #147 ) ;
#76 = EDGE_LOOP ( 'NONE', ( #157 ) ) ;
#77 = CALENDAR_DATE ( 2021, 1, 11 ) ;
#78 = ORIENTED_EDGE ( 'NONE', *, *, #219, .T. ) ;
#79 = FACE_OUTER_BOUND ( 'NONE', #207, .T. ) ;
#80 = DIRECTION ( 'NONE',  ( -4.285855558155653280E-31, -1.000000000000000000, -1.227517819005651059E-16 ) ) ;
#81 = AXIS2_PLACEMENT_3D ( 'NONE', #82, #140, #66 ) ;
#82 = CARTESIAN_POINT ( 'NONE',  ( 2.793185071074506053E-14, -9.820142552045206497E-16, 7.999999999999998224 ) ) ;
#83 = EDGE_CURVE ( 'NONE', #61, #61, #143, .T. ) ;
#84 = DIRECTION ( 'NONE',  ( 4.275831445896959482E-31, 1.000000000000000000, 1.224646799147353207E-16 ) ) ;
#85 = CARTESIAN_POINT ( 'NONE',  ( -8.551623707117318460E-31, 2.999505821189316650E-32, -2.449282375357277963E-16 ) ) ;
#86 =( GEOMETRIC_REPRESENTATION_CONTEXT ( 3 ) GLOBAL_UNCERTAINTY_ASSIGNED_CONTEXT ( ( #1 ) ) GLOBAL_UNIT_ASSIGNED_CONTEXT ( ( #28, #44, #118 ) ) REPRESENTATION_CONTEXT ( 'NONE', 'WORKASPACE' ) );
#87 = FACE_BOUND ( 'NONE', #96, .T. ) ;
#88 = ORGANIZATION ( 'UNSPECIFIED', 'UNSPECIFIED', '' ) ;
#89 = MECHANICAL_CONTEXT ( 'NONE', #182, 'mechanical' ) ;
#90 = APPLICATION_PROTOCOL_DEFINITION ( 'international standard', 'config_control_design', 1994, #150 ) ;
#91 = APPROVAL_STATUS ( 'not_yet_approved' ) ;
#92 = CIRCLE ( 'NONE', #119, 2.999999999999999112 ) ;
#93 = ORIENTED_EDGE ( 'NONE', *, *, #40, .F. ) ;
#94 = DATE_AND_TIME ( #55, #211 ) ;
#95 = CARTESIAN_POINT ( 'NONE',  ( 2.793185071074506684E-14, 2.249639673992780117E-32, 8.000000000000000000 ) ) ;
#96 = EDGE_LOOP ( 'NONE', ( #137 ) ) ;
#97 = DATE_AND_TIME ( #77, #151 ) ;
#98 = EDGE_LOOP ( 'NONE', ( #153 ) ) ;
#99 = CYLINDRICAL_SURFACE ( 'NONE', #127, 1.999999999999998224 ) ;
#100 = DIRECTION ( 'NONE',  ( -3.491481338843133355E-15, 1.224646799147353207E-16, -1.000000000000000000 ) ) ;
#101 = PLANE ( 'NONE',  #67 ) ;
#102 = CARTESIAN_POINT ( 'NONE',  ( 1.976178437785213858E-13, -6.931500883174021061E-15, 56.60000000000000853 ) ) ;
#103 = PERSON_AND_ORGANIZATION_ROLE ( 'creator' ) ;
#104 = CC_DESIGN_SECURITY_CLASSIFICATION ( #71, ( #163 ) ) ;
#105 = CALENDAR_DATE ( 2021, 1, 11 ) ;
#106 = CLOSED_SHELL ( 'NONE', ( #4, #215, #70 ) ) ;
#107 = VERTEX_POINT ( 'NONE', #204 ) ;
#108 = EDGE_LOOP ( 'NONE', ( #34 ) ) ;
#109 = ADVANCED_FACE ( 'NONE', ( #5, #7 ), #161, .T. ) ;
#110 = CARTESIAN_POINT ( 'NONE',  ( -8.571711116311304807E-31, 7.586917266660477190E-33, -2.455035638011301131E-16 ) ) ;
#111 = CARTESIAN_POINT ( 'NONE',  ( -1.714342223262260611E-30, -1.999999999999999112, -4.910071276022602262E-16 ) ) ;
#112 = DIRECTION ( 'NONE',  ( 3.491481338843133355E-15, -1.224646799147353207E-16, 1.000000000000000000 ) ) ;
#113 = DIRECTION ( 'NONE',  ( -3.491481338843133355E-15, 1.227517819005651059E-16, -1.000000000000000000 ) ) ;
#114 = CARTESIAN_POINT ( 'NONE',  ( 4.145429978967846027E-14, -2.210139082994979673E-15, 11.87298334620740725 ) ) ;
#115 = APPROVAL_PERSON_ORGANIZATION ( #188, #45, #57 ) ;
#116 = APPROVAL_STATUS ( 'not_yet_approved' ) ;
#117 = COORDINATED_UNIVERSAL_TIME_OFFSET ( 1, 0, .AHEAD. ) ;
#118 =( NAMED_UNIT ( * ) SI_UNIT ( $, .STERADIAN. ) SOLID_ANGLE_UNIT ( ) );
#119 = AXIS2_PLACEMENT_3D ( 'NONE', #102, #41, #24 ) ;
#120 = APPROVAL_ROLE ( '' ) ;
#121 = EDGE_LOOP ( 'NONE', ( #78 ) ) ;
#122 = PRODUCT_DEFINITION_SHAPE ( 'NONE', 'NONE',  #21 ) ;
#123 = EDGE_LOOP ( 'NONE', ( #222 ) ) ;
#124 = COORDINATED_UNIVERSAL_TIME_OFFSET ( 1, 0, .AHEAD. ) ;
#125 = EDGE_LOOP ( 'NONE', ( #56 ) ) ;
#126 = DIRECTION ( 'NONE',  ( -3.491481338843133355E-15, 1.224646799147353207E-16, -1.000000000000000000 ) ) ;
#127 = AXIS2_PLACEMENT_3D ( 'NONE', #198, #2, #80 ) ;
#128 = CARTESIAN_POINT ( 'NONE',  ( 4.145429978967846027E-14, 2.999999999999993783, 11.87298334620740725 ) ) ;
#129 = CARTESIAN_POINT ( 'NONE',  ( 1.990144363140586139E-13, -6.980486755139912911E-15, 57.00000000000000000 ) ) ;
#130 = FACE_OUTER_BOUND ( 'NONE', #98, .T. ) ;
#131 = PRODUCT_RELATED_PRODUCT_CATEGORY ( 'detail', '', ( #62 ) ) ;
#132 = CIRCLE ( 'NONE', #185, 1.999999999999997335 ) ;
#133 = DIRECTION ( 'NONE',  ( 3.491481338843133355E-15, -1.227517819005651059E-16, 1.000000000000000000 ) ) ;
#134 = PERSON_AND_ORGANIZATION_ROLE ( 'classification_officer' ) ;
#135 = PERSON_AND_ORGANIZATION ( #206, #88 ) ;
#136 = DIRECTION ( 'NONE',  ( 3.491481338843133355E-15, -1.224646799147353207E-16, 1.000000000000000000 ) ) ;
#137 = ORIENTED_EDGE ( 'NONE', *, *, #176, .T. ) ;
#138 = VERTEX_POINT ( 'NONE', #141 ) ;
#139 = PLANE ( 'NONE',  #187 ) ;
#140 = DIRECTION ( 'NONE',  ( 3.491481338843133355E-15, -1.227517819005651059E-16, 1.000000000000000000 ) ) ;
#141 = CARTESIAN_POINT ( 'NONE',  ( 2.793185071074506053E-14, -1.999999999999998224, 7.999999999999998224 ) ) ;
#142 = MANIFOLD_SOLID_BREP ( 'Corps-Déplacer/Copier1[1]', #223 ) ;
#143 = CIRCLE ( 'NONE', #164, 2.999999999999996003 ) ;
#144 = DIRECTION ( 'NONE',  ( 0.0000000000000000000, 1.000000000000000000, 0.0000000000000000000 ) ) ;
#145 = PERSON_AND_ORGANIZATION ( #206, #88 ) ;
#146 = PERSON_AND_ORGANIZATION ( #206, #88 ) ;
#147 = COORDINATED_UNIVERSAL_TIME_OFFSET ( 1, 0, .AHEAD. ) ;
#148 = ADVANCED_FACE ( 'NONE', ( #23, #42 ), #152, .F. ) ;
#149 = DATE_TIME_ROLE ( 'creation_date' ) ;
#150 = APPLICATION_CONTEXT ( 'configuration controlled 3d designs of mechanical parts and assemblies' ) ;
#151 = LOCAL_TIME ( 11, 35, 11.00000000000000000, #117 ) ;
#152 = TOROIDAL_SURFACE ( 'NONE', #15, 10.00000000000000000, 8.000000000000000000 ) ;
#153 = ORIENTED_EDGE ( 'NONE', *, *, #40, .T. ) ;
#154 = APPROVAL_PERSON_ORGANIZATION ( #27, #160, #217 ) ;
#155 = DIRECTION ( 'NONE',  ( -4.275831445896958607E-31, -1.000000000000000000, -1.224646799147353207E-16 ) ) ;
#156 = CIRCLE ( 'NONE', #175, 1.999999999999999112 ) ;
#157 = ORIENTED_EDGE ( 'NONE', *, *, #176, .F. ) ;
#158 = FACE_OUTER_BOUND ( 'NONE', #174, .T. ) ;
#159 = FACE_OUTER_BOUND ( 'NONE', #76, .T. ) ;
#160 = APPROVAL ( #116, 'UNSPECIFIED' ) ;
#161 = CYLINDRICAL_SURFACE ( 'NONE', #60, 2.999999999999996003 ) ;
#162 = CARTESIAN_POINT ( 'NONE',  ( 0.0000000000000000000, 0.0000000000000000000, 0.0000000000000000000 ) ) ;
#163 = PRODUCT_DEFINITION_FORMATION_WITH_SPECIFIED_SOURCE ( 'ANY', '', #62, .NOT_KNOWN. ) ;
#164 = AXIS2_PLACEMENT_3D ( 'NONE', #114, #113, #144 ) ;
#165 = APPROVAL_DATE_TIME ( #200, #186 ) ;
#166 = ADVANCED_FACE ( 'NONE', ( #159 ), #199, .F. ) ;
#167 = PERSON_AND_ORGANIZATION ( #206, #88 ) ;
#168 = DATE_AND_TIME ( #49, #194 ) ;
#169 = DIRECTION ( 'NONE',  ( 0.0000000000000000000, 0.0000000000000000000, 1.000000000000000000 ) ) ;
#170 = CC_DESIGN_DATE_AND_TIME_ASSIGNMENT ( #168, #149, ( #21 ) ) ;
#171 = ORIENTED_EDGE ( 'NONE', *, *, #11, .T. ) ;
#172 = CC_DESIGN_APPROVAL ( #45, ( #71 ) ) ;
#173 = ORIENTED_EDGE ( 'NONE', *, *, #83, .T. ) ;
#174 = EDGE_LOOP ( 'NONE', ( #190 ) ) ;
#175 = AXIS2_PLACEMENT_3D ( 'NONE', #110, #133, #22 ) ;
#176 = EDGE_CURVE ( 'NONE', #214, #214, #32, .T. ) ;
#177 = CIRCLE ( 'NONE', #81, 1.999999999999997335 ) ;
#178 = DIRECTION ( 'NONE',  ( 0.0000000000000000000, 1.000000000000000000, 0.0000000000000000000 ) ) ;
#179 = CC_DESIGN_DATE_AND_TIME_ASSIGNMENT ( #97, #209, ( #71 ) ) ;
#180 = DIRECTION ( 'NONE',  ( -4.275831445896958607E-31, -1.000000000000000000, -1.224646799147353207E-16 ) ) ;
#181 = CARTESIAN_POINT ( 'NONE',  ( 1.990144363140586139E-13, -6.980486755139912911E-15, 57.00000000000000000 ) ) ;
#182 = APPLICATION_CONTEXT ( 'configuration controlled 3d designs of mechanical parts and assemblies' ) ;
#183 = DIRECTION ( 'NONE',  ( -3.491481338843133355E-15, 1.224646799147353207E-16, -1.000000000000000000 ) ) ;
#184 = CARTESIAN_POINT ( 'NONE',  ( 0.0000000000000000000, 0.0000000000000000000, 0.0000000000000000000 ) ) ;
#185 = AXIS2_PLACEMENT_3D ( 'NONE', #53, #189, #39 ) ;
#186 = APPROVAL ( #91, 'UNSPECIFIED' ) ;
#187 = AXIS2_PLACEMENT_3D ( 'NONE', #20, #38, #213 ) ;
#188 = PERSON_AND_ORGANIZATION ( #206, #88 ) ;
#189 = DIRECTION ( 'NONE',  ( 3.491481338843133355E-15, -1.227517819005651059E-16, 1.000000000000000000 ) ) ;
#190 = ORIENTED_EDGE ( 'NONE', *, *, #219, .F. ) ;
#191 = SHAPE_DEFINITION_REPRESENTATION ( #122, #46 ) ;
#192 = EDGE_CURVE ( 'NONE', #107, #107, #177, .T. ) ;
#193 = DIRECTION ( 'NONE',  ( 4.275831445896958607E-31, 1.000000000000000000, 1.224646799147353207E-16 ) ) ;
#194 = LOCAL_TIME ( 11, 35, 11.00000000000000000, #74 ) ;
#195 = DESIGN_CONTEXT ( 'detailed design', #150, 'design' ) ;
#196 = DIRECTION ( 'NONE',  ( 3.491481338843133355E-15, -1.227517819005651059E-16, 1.000000000000000000 ) ) ;
#197 = DIRECTION ( 'NONE',  ( 0.0000000000000000000, 1.000000000000000000, 0.0000000000000000000 ) ) ;
#198 = CARTESIAN_POINT ( 'NONE',  ( -6.413731847436034514E-31, 0.0000000000000000000, -1.836965810494968570E-16 ) ) ;
#199 = PLANE ( 'NONE',  #14 ) ;
#200 = DATE_AND_TIME ( #68, #26 ) ;
#201 = VERTEX_POINT ( 'NONE', #48 ) ;
#202 = CARTESIAN_POINT ( 'NONE',  ( 1.990144363140586139E-13, 2.599999999999992095, 57.00000000000000000 ) ) ;
#203 = CC_DESIGN_PERSON_AND_ORGANIZATION_ASSIGNMENT ( #218, #72, ( #163 ) ) ;
#204 = CARTESIAN_POINT ( 'NONE',  ( 2.793185071074506053E-14, -1.999999999999998224, 7.999999999999998224 ) ) ;
#205 = CC_DESIGN_APPROVAL ( #160, ( #21 ) ) ;
#206 = PERSON ( 'UNSPECIFIED', 'UNSPECIFIED', 'UNSPECIFIED', ('UNSPECIFIED'), ('UNSPECIFIED'), ('UNSPECIFIED') ) ;
#207 = EDGE_LOOP ( 'NONE', ( #171 ) ) ;
#208 = ADVANCED_FACE ( 'NONE', ( #37 ), #139, .F. ) ;
#209 = DATE_TIME_ROLE ( 'classification_date' ) ;
#210 = EDGE_LOOP ( 'NONE', ( #173 ) ) ;
#211 = LOCAL_TIME ( 11, 35, 11.00000000000000000, #124 ) ;
#212 = VERTEX_POINT ( 'NONE', #111 ) ;
#213 = DIRECTION ( 'NONE',  ( -4.275831445896958607E-31, -1.000000000000000000, -1.224646799147353207E-16 ) ) ;
#214 = VERTEX_POINT ( 'NONE', #202 ) ;
#215 = ADVANCED_FACE ( 'NONE', ( #130, #8 ), #99, .T. ) ;
#216 = FACE_OUTER_BOUND ( 'NONE', #58, .T. ) ;
#217 = APPROVAL_ROLE ( '' ) ;
#218 = PERSON_AND_ORGANIZATION ( #206, #88 ) ;
#219 = EDGE_CURVE ( 'NONE', #201, #201, #92, .T. ) ;
#220 = MANIFOLD_SOLID_BREP ( 'Corps-Déplacer/Copier1[2]', #106 ) ;
#221 = CC_DESIGN_PERSON_AND_ORGANIZATION_ASSIGNMENT ( #146, #103, ( #21 ) ) ;
#222 = ORIENTED_EDGE ( 'NONE', *, *, #11, .F. ) ;
#223 = CLOSED_SHELL ( 'NONE', ( #109, #33, #166, #148, #208 ) ) ;
ENDSEC;
END-ISO-10303-21;
