ISO-10303-21;
HEADER;
FILE_DESCRIPTION (( 'STEP AP203' ),
    '1' );
FILE_NAME ('41874.step',
    '2021-09-03T07:22:17',
    ( '' ),
    ( '' ),
    'SwSTEP 2.0',
    'SolidWorks 2019',
    '' );
FILE_SCHEMA (( 'CONFIG_CONTROL_DESIGN' ));
ENDSEC;

DATA;
#1 = ADVANCED_FACE ( 'NONE', ( #56 ), #46, .T. ) ;
#2 = DIRECTION ( 'NONE',  ( 0.0000000000000000000, 1.000000000000000000, 0.0000000000000000000 ) ) ;
#3 = DIRECTION ( 'NONE',  ( 0.0000000000000000000, 1.000000000000000000, 0.0000000000000000000 ) ) ;
#4 = CIRCLE ( 'NONE', #117, 0.9999999999999995559 ) ;
#5 = EDGE_LOOP ( 'NONE', ( #159, #136 ) ) ;
#6 = AXIS2_PLACEMENT_3D ( 'NONE', #206, #256, #226 ) ;
#7 = LINE ( 'NONE', #248, #300 ) ;
#8 = ORIENTED_EDGE ( 'NONE', *, *, #137, .F. ) ;
#9 = VERTEX_POINT ( 'NONE', #164 ) ;
#10 = FACE_OUTER_BOUND ( 'NONE', #308, .T. ) ;
#11 = AXIS2_PLACEMENT_3D ( 'NONE', #259, #75, #225 ) ;
#12 = DIRECTION ( 'NONE',  ( 4.275831445896957731E-31, 1.000000000000000000, 1.224646799147353207E-16 ) ) ;
#13 = VERTEX_POINT ( 'NONE', #291 ) ;
#14 = CC_DESIGN_DATE_AND_TIME_ASSIGNMENT ( #112, #218, ( #97 ) ) ;
#15 = PERSON_AND_ORGANIZATION ( #307, #38 ) ;
#16 = ORIENTED_EDGE ( 'NONE', *, *, #143, .F. ) ;
#17 = CONICAL_SURFACE ( 'NONE', #101, 0.9999999999999995559, 0.7853981633974453924 ) ;
#18 = AXIS2_PLACEMENT_3D ( 'NONE', #253, #336, #3 ) ;
#19 = ORIENTED_EDGE ( 'NONE', *, *, #241, .T. ) ;
#20 = DIRECTION ( 'NONE',  ( -3.491481338843133355E-15, 1.224646799147353207E-16, -1.000000000000000000 ) ) ;
#21 = CARTESIAN_POINT ( 'NONE',  ( 5.558580879666035328E-31, 1.299999999999997602, 1.592040838891556137E-16 ) ) ;
#22 = AXIS2_PLACEMENT_3D ( 'NONE', #41, #199, #68 ) ;
#23 = FACE_OUTER_BOUND ( 'NONE', #155, .T. ) ;
#24 = CC_DESIGN_PERSON_AND_ORGANIZATION_ASSIGNMENT ( #34, #294, ( #180 ) ) ;
#25 = CARTESIAN_POINT ( 'NONE',  ( 1.501336975702547217E-13, 0.9999999999999943379, 43.00000000000000000 ) ) ;
#26 = CONICAL_SURFACE ( 'NONE', #22, 1.299999999999994271, 1.029744258676649649 ) ;
#27 = CARTESIAN_POINT ( 'NONE',  ( 1.592040838891547509E-16, -1.299999999999994937, -1.592040838891558356E-16 ) ) ;
#28 = ADVANCED_FACE ( 'NONE', ( #113 ), #224, .F. ) ;
#29 = CARTESIAN_POINT ( 'NONE',  ( 1.592040838891550714E-16, -1.299999999999997602, -1.592040838891561807E-16 ) ) ;
#30 = ORIENTED_EDGE ( 'NONE', *, *, #293, .T. ) ;
#31 = DIRECTION ( 'NONE',  ( -3.491481338843133355E-15, 1.224646799147353207E-16, -1.000000000000000000 ) ) ;
#32 = FACE_OUTER_BOUND ( 'NONE', #129, .T. ) ;
#33 = ORIENTED_EDGE ( 'NONE', *, *, #325, .T. ) ;
#34 = PERSON_AND_ORGANIZATION ( #307, #38 ) ;
#35 = ORIENTED_EDGE ( 'NONE', *, *, #82, .F. ) ;
#36 = DATE_AND_TIME ( #323, #231 ) ;
#37 = AXIS2_PLACEMENT_3D ( 'NONE', #220, #139, #135 ) ;
#38 = ORGANIZATION ( 'UNSPECIFIED', 'UNSPECIFIED', '' ) ;
#39 = APPROVAL ( #238, 'UNSPECIFIED' ) ;
#40 = APPROVAL_DATE_TIME ( #36, #285 ) ;
#41 = CARTESIAN_POINT ( 'NONE',  ( 2.727261730154616491E-15, -9.565946439735450186E-17, 0.7811188047358336162 ) ) ;
#42 =( NAMED_UNIT ( * ) SI_UNIT ( $, .STERADIAN. ) SOLID_ANGLE_UNIT ( ) );
#43 = ORIENTED_EDGE ( 'NONE', *, *, #266, .T. ) ;
#44 = DIRECTION ( 'NONE',  ( -3.491481338843133355E-15, 1.224646799147353207E-16, -1.000000000000000000 ) ) ;
#45 = DATE_AND_TIME ( #170, #160 ) ;
#46 = PLANE ( 'NONE',  #324 ) ;
#47 = AXIS2_PLACEMENT_3D ( 'NONE', #181, #52, #104 ) ;
#48 = SHAPE_DEFINITION_REPRESENTATION ( #276, #165 ) ;
#49 = ORIENTED_EDGE ( 'NONE', *, *, #88, .T. ) ;
#50 = PRODUCT_RELATED_PRODUCT_CATEGORY ( 'detail', '', ( #94 ) ) ;
#51 = APPLICATION_PROTOCOL_DEFINITION ( 'international standard', 'config_control_design', 1994, #326 ) ;
#52 = DIRECTION ( 'NONE',  ( -3.491481338843133355E-15, 1.224646799147353207E-16, -1.000000000000000000 ) ) ;
#53 = ADVANCED_FACE ( 'NONE', ( #251 ), #26, .T. ) ;
#54 = ORIENTED_EDGE ( 'NONE', *, *, #319, .F. ) ;
#55 = DIRECTION ( 'NONE',  ( -2.468850131082271655E-15, 0.7071067811865455743, -0.7071067811865493491 ) ) ;
#56 = FACE_OUTER_BOUND ( 'NONE', #5, .T. ) ;
#57 = ORIENTED_EDGE ( 'NONE', *, *, #271, .T. ) ;
#58 = CARTESIAN_POINT ( 'NONE',  ( 1.490862531686017753E-13, -5.229241832359197610E-15, 42.69999999999999574 ) ) ;
#59 = FACE_OUTER_BOUND ( 'NONE', #210, .T. ) ;
#60 = AXIS2_PLACEMENT_3D ( 'NONE', #264, #296, #317 ) ;
#61 = CIRCLE ( 'NONE', #222, 1.299999999999995604 ) ;
#62 = DIRECTION ( 'NONE',  ( 0.0000000000000000000, 1.000000000000000000, 0.0000000000000000000 ) ) ;
#63 =( NAMED_UNIT ( * ) PLANE_ANGLE_UNIT ( ) SI_UNIT ( $, .RADIAN. ) );
#64 = CYLINDRICAL_SURFACE ( 'NONE', #275, 1.299999999999997602 ) ;
#65 = VECTOR ( 'NONE', #55, 1000.000000000000114 ) ;
#66 = CIRCLE ( 'NONE', #148, 1.299999999999994271 ) ;
#67 = CARTESIAN_POINT ( 'NONE',  ( 1.501336975702547217E-13, -5.265981236333618470E-15, 43.00000000000000000 ) ) ;
#68 = DIRECTION ( 'NONE',  ( -2.962969145211144983E-31, -1.000000000000000000, -8.340016711426993499E-17 ) ) ;
#69 = UNCERTAINTY_MEASURE_WITH_UNIT (LENGTH_MEASURE( 1.000000000000000082E-05 ), #239, 'distance_accuracy_value', 'NONE');
#70 = DATE_AND_TIME ( #176, #269 ) ;
#71 = COORDINATED_UNIVERSAL_TIME_OFFSET ( 1, 0, .AHEAD. ) ;
#72 = ORIENTED_EDGE ( 'NONE', *, *, #241, .F. ) ;
#73 = EDGE_CURVE ( 'NONE', #128, #234, #141, .T. ) ;
#74 = AXIS2_PLACEMENT_3D ( 'NONE', #236, #242, #232 ) ;
#75 = DIRECTION ( 'NONE',  ( 3.491481338843133355E-15, -1.224646799147353207E-16, 1.000000000000000000 ) ) ;
#76 = CYLINDRICAL_SURFACE ( 'NONE', #74, 1.299999999999997602 ) ;
#77 = ORIENTED_EDGE ( 'NONE', *, *, #319, .T. ) ;
#78 = VECTOR ( 'NONE', #235, 1000.000000000000000 ) ;
#79 = EDGE_LOOP ( 'NONE', ( #250, #19, #310, #8 ) ) ;
#80 = DIRECTION ( 'NONE',  ( 2.962969145211144983E-31, 1.000000000000000000, 8.340016711426993499E-17 ) ) ;
#81 = DIRECTION ( 'NONE',  ( -3.491481338843133355E-15, 1.224646799147353207E-16, -1.000000000000000000 ) ) ;
#82 = EDGE_CURVE ( 'NONE', #142, #208, #211, .T. ) ;
#83 = PERSON_AND_ORGANIZATION ( #307, #38 ) ;
#84 = CIRCLE ( 'NONE', #118, 1.299999999999994271 ) ;
#85 = PERSON_AND_ORGANIZATION_ROLE ( 'creator' ) ;
#86 = DIRECTION ( 'NONE',  ( -4.275831445896958607E-31, -1.000000000000000000, -1.224646799147353207E-16 ) ) ;
#87 = CARTESIAN_POINT ( 'NONE',  ( 1.501336975702547217E-13, 0.9999999999999943379, 43.00000000000000000 ) ) ;
#88 = EDGE_CURVE ( 'NONE', #13, #90, #184, .T. ) ;
#89 = COORDINATED_UNIVERSAL_TIME_OFFSET ( 1, 0, .AHEAD. ) ;
#90 = VERTEX_POINT ( 'NONE', #257 ) ;
#91 = FACE_OUTER_BOUND ( 'NONE', #265, .T. ) ;
#92 = DIRECTION ( 'NONE',  ( -3.491481338843133355E-15, 1.224646799147353207E-16, -1.000000000000000000 ) ) ;
#93 = LOCAL_TIME ( 9, 22, 17.00000000000000000, #261 ) ;
#94 = PRODUCT ( '41874', '41874', '', ( #147 ) ) ;
#95 = AXIS2_PLACEMENT_3D ( 'NONE', #110, #321, #12 ) ;
#96 = ORIENTED_EDGE ( 'NONE', *, *, #328, .T. ) ;
#97 = PRODUCT_DEFINITION ( 'UNKNOWN', '', #180, #122 ) ;
#98 = DIRECTION ( 'NONE',  ( 1.903218546456022717E-15, 0.8571673007021097801, 0.5150380749100585964 ) ) ;
#99 = DIRECTION ( 'NONE',  ( -2.962969145211144983E-31, -1.000000000000000000, -8.340016711426993499E-17 ) ) ;
#100 = CARTESIAN_POINT ( 'NONE',  ( 1.501336975702547217E-13, -5.265981236333618470E-15, 43.00000000000000000 ) ) ;
#101 = AXIS2_PLACEMENT_3D ( 'NONE', #244, #213, #62 ) ;
#102 = SECURITY_CLASSIFICATION ( '', '', #249 ) ;
#103 = ORIENTED_EDGE ( 'NONE', *, *, #162, .F. ) ;
#104 = DIRECTION ( 'NONE',  ( 0.0000000000000000000, 1.000000000000000000, 0.0000000000000000000 ) ) ;
#105 = VERTEX_POINT ( 'NONE', #149 ) ;
#106 = ORIENTED_EDGE ( 'NONE', *, *, #205, .F. ) ;
#107 = AXIS2_PLACEMENT_3D ( 'NONE', #121, #228, #327 ) ;
#108 = CC_DESIGN_SECURITY_CLASSIFICATION ( #102, ( #180 ) ) ;
#109 = ADVANCED_FACE ( 'NONE', ( #23 ), #179, .T. ) ;
#110 = CARTESIAN_POINT ( 'NONE',  ( 0.0000000000000000000, 0.0000000000000000000, 0.0000000000000000000 ) ) ;
#111 = ADVANCED_FACE ( 'NONE', ( #203 ), #255, .T. ) ;
#112 = DATE_AND_TIME ( #273, #212 ) ;
#113 = FACE_OUTER_BOUND ( 'NONE', #284, .T. ) ;
#114 = ORIENTED_EDGE ( 'NONE', *, *, #137, .T. ) ;
#115 = FACE_OUTER_BOUND ( 'NONE', #79, .T. ) ;
#116 = APPROVAL_ROLE ( '' ) ;
#117 = AXIS2_PLACEMENT_3D ( 'NONE', #67, #44, #192 ) ;
#118 = AXIS2_PLACEMENT_3D ( 'NONE', #277, #134, #283 ) ;
#119 = CC_DESIGN_PERSON_AND_ORGANIZATION_ASSIGNMENT ( #140, #223, ( #180 ) ) ;
#120 = PERSON_AND_ORGANIZATION ( #307, #38 ) ;
#121 = CARTESIAN_POINT ( 'NONE',  ( 0.0000000000000000000, 0.0000000000000000000, 0.0000000000000000000 ) ) ;
#122 = DESIGN_CONTEXT ( 'detailed design', #326, 'design' ) ;
#123 = APPROVAL_STATUS ( 'not_yet_approved' ) ;
#124 = CC_DESIGN_PERSON_AND_ORGANIZATION_ASSIGNMENT ( #177, #278, ( #94 ) ) ;
#125 = CIRCLE ( 'NONE', #18, 1.299999999999999600 ) ;
#126 = PERSON_AND_ORGANIZATION ( #307, #38 ) ;
#127 = DATE_AND_TIME ( #316, #93 ) ;
#128 = VERTEX_POINT ( 'NONE', #302 ) ;
#129 = EDGE_LOOP ( 'NONE', ( #154, #96, #16, #187 ) ) ;
#130 = ADVANCED_FACE ( 'NONE', ( #59 ), #76, .T. ) ;
#131 = CARTESIAN_POINT ( 'NONE',  ( 9.390547803182709885E-14, -1.300000000000004929, 42.69999999999999574 ) ) ;
#132 = CIRCLE ( 'NONE', #47, 1.299999999999995604 ) ;
#133 = ORIENTED_EDGE ( 'NONE', *, *, #328, .F. ) ;
#134 = DIRECTION ( 'NONE',  ( -3.491481338843133355E-15, 1.224646799147353207E-16, -1.000000000000000000 ) ) ;
#135 = DIRECTION ( 'NONE',  ( 0.0000000000000000000, 1.000000000000000000, 0.0000000000000000000 ) ) ;
#136 = ORIENTED_EDGE ( 'NONE', *, *, #305, .F. ) ;
#137 = EDGE_CURVE ( 'NONE', #208, #128, #262, .T. ) ;
#138 = COORDINATED_UNIVERSAL_TIME_OFFSET ( 1, 0, .AHEAD. ) ;
#139 = DIRECTION ( 'NONE',  ( -3.491481338843133355E-15, 1.224646799147353207E-16, -1.000000000000000000 ) ) ;
#140 = PERSON_AND_ORGANIZATION ( #307, #38 ) ;
#141 = LINE ( 'NONE', #21, #332 ) ;
#142 = VERTEX_POINT ( 'NONE', #153 ) ;
#143 = EDGE_CURVE ( 'NONE', #234, #105, #268, .T. ) ;
#144 = CARTESIAN_POINT ( 'NONE',  ( 3.840629472727446691E-14, -1.347111479062088405E-15, 11.00000000000000000 ) ) ;
#145 = CC_DESIGN_APPROVAL ( #285, ( #180 ) ) ;
#146 = DIRECTION ( 'NONE',  ( -3.491481338843133355E-15, 1.224646799147353207E-16, -1.000000000000000000 ) ) ;
#147 = MECHANICAL_CONTEXT ( 'NONE', #150, 'mechanical' ) ;
#148 = AXIS2_PLACEMENT_3D ( 'NONE', #289, #202, #80 ) ;
#149 = CARTESIAN_POINT ( 'NONE',  ( 9.390547803182723769E-14, -1.299999999999996936, 11.00000000000000000 ) ) ;
#150 = APPLICATION_CONTEXT ( 'configuration controlled 3d designs of mechanical parts and assemblies' ) ;
#151 = LINE ( 'NONE', #29, #78 ) ;
#152 = CONICAL_SURFACE ( 'NONE', #37, 0.9999999999999995559, 0.7853981633974453924 ) ;
#153 = CARTESIAN_POINT ( 'NONE',  ( 1.497508097513302028E-13, -1.000000000000004885, 43.00000000000000000 ) ) ;
#154 = ORIENTED_EDGE ( 'NONE', *, *, #245, .T. ) ;
#155 = EDGE_LOOP ( 'NONE', ( #106, #57, #286 ) ) ;
#156 = LINE ( 'NONE', #27, #301 ) ;
#157 = ADVANCED_FACE ( 'NONE', ( #314 ), #17, .T. ) ;
#158 = ORIENTED_EDGE ( 'NONE', *, *, #266, .F. ) ;
#159 = ORIENTED_EDGE ( 'NONE', *, *, #88, .F. ) ;
#160 = LOCAL_TIME ( 9, 22, 17.00000000000000000, #138 ) ;
#161 = ORIENTED_EDGE ( 'NONE', *, *, #293, .F. ) ;
#162 = EDGE_CURVE ( 'NONE', #208, #142, #4, .T. ) ;
#163 = CYLINDRICAL_SURFACE ( 'NONE', #95, 1.299999999999994937 ) ;
#164 = CARTESIAN_POINT ( 'NONE',  ( 0.0000000000000000000, 0.0000000000000000000, 0.0000000000000000000 ) ) ;
#165 = ADVANCED_BREP_SHAPE_REPRESENTATION ( '41874', ( #171, #281, #6 ), #258 ) ;
#166 = CLOSED_SHELL ( 'NONE', ( #200, #175, #209, #130, #157, #28 ) ) ;
#167 = APPROVAL_PERSON_ORGANIZATION ( #15, #285, #116 ) ;
#168 = DIRECTION ( 'NONE',  ( 4.275831445896958607E-31, 1.000000000000000000, 1.224646799147353207E-16 ) ) ;
#169 = CARTESIAN_POINT ( 'NONE',  ( 1.502561622501694568E-13, -1.000000000000004885, 43.00000000000000000 ) ) ;
#170 = CALENDAR_DATE ( 2021, 3, 9 ) ;
#171 = MANIFOLD_SOLID_BREP ( 'Corps-Déplacer/Copier1[1]', #166 ) ;
#172 = APPROVAL_DATE_TIME ( #70, #315 ) ;
#173 = AXIS2_PLACEMENT_3D ( 'NONE', #219, #92, #168 ) ;
#174 = APPLICATION_PROTOCOL_DEFINITION ( 'international standard', 'config_control_design', 1994, #150 ) ;
#175 = ADVANCED_FACE ( 'NONE', ( #32 ), #64, .T. ) ;
#176 = CALENDAR_DATE ( 2021, 3, 9 ) ;
#177 = PERSON_AND_ORGANIZATION ( #307, #38 ) ;
#178 = ORIENTED_EDGE ( 'NONE', *, *, #82, .T. ) ;
#179 = CONICAL_SURFACE ( 'NONE', #193, 1.299999999999994271, 1.029744258676649649 ) ;
#180 = PRODUCT_DEFINITION_FORMATION_WITH_SPECIFIED_SOURCE ( 'ANY', '', #94, .NOT_KNOWN. ) ;
#181 = CARTESIAN_POINT ( 'NONE',  ( 3.840629472727446691E-14, -1.347111479062088405E-15, 11.00000000000000000 ) ) ;
#182 = ORIENTED_EDGE ( 'NONE', *, *, #252, .T. ) ;
#183 = CARTESIAN_POINT ( 'NONE',  ( 3.840629472727446691E-14, -1.347111479062088405E-15, 11.00000000000000000 ) ) ;
#184 = CIRCLE ( 'NONE', #233, 1.299999999999995604 ) ;
#185 = ADVANCED_FACE ( 'NONE', ( #10 ), #163, .T. ) ;
#186 = VECTOR ( 'NONE', #331, 1000.000000000000000 ) ;
#187 = ORIENTED_EDGE ( 'NONE', *, *, #73, .F. ) ;
#188 = CARTESIAN_POINT ( 'NONE',  ( 2.886465814043772105E-15, 1.299999999999994271, 0.7811188047358337272 ) ) ;
#189 = ORIENTED_EDGE ( 'NONE', *, *, #305, .T. ) ;
#190 = DIRECTION ( 'NONE',  ( 0.0000000000000000000, 1.000000000000000000, 0.0000000000000000000 ) ) ;
#191 = AXIS2_PLACEMENT_3D ( 'NONE', #100, #146, #330 ) ;
#192 = DIRECTION ( 'NONE',  ( 0.0000000000000000000, 1.000000000000000000, 0.0000000000000000000 ) ) ;
#193 = AXIS2_PLACEMENT_3D ( 'NONE', #329, #230, #99 ) ;
#194 = COORDINATED_UNIVERSAL_TIME_OFFSET ( 1, 0, .AHEAD. ) ;
#195 = ORIENTED_EDGE ( 'NONE', *, *, #143, .T. ) ;
#196 = CARTESIAN_POINT ( 'NONE',  ( 3.840629472727446691E-14, 9.748438587302022450E-33, 11.00000000000000000 ) ) ;
#197 = CC_DESIGN_PERSON_AND_ORGANIZATION_ASSIGNMENT ( #198, #85, ( #97 ) ) ;
#198 = PERSON_AND_ORGANIZATION ( #307, #38 ) ;
#199 = DIRECTION ( 'NONE',  ( 3.491481338843133355E-15, -1.224646799147353207E-16, 1.000000000000000000 ) ) ;
#200 = ADVANCED_FACE ( 'NONE', ( #115 ), #152, .T. ) ;
#201 = CC_DESIGN_APPROVAL ( #315, ( #102 ) ) ;
#202 = DIRECTION ( 'NONE',  ( -3.491481338843133355E-15, 1.224646799147353207E-16, -1.000000000000000000 ) ) ;
#203 = FACE_OUTER_BOUND ( 'NONE', #304, .T. ) ;
#204 = PLANE ( 'NONE',  #11 ) ;
#205 = EDGE_CURVE ( 'NONE', #9, #337, #7, .T. ) ;
#206 = CARTESIAN_POINT ( 'NONE',  ( 0.0000000000000000000, 0.0000000000000000000, 0.0000000000000000000 ) ) ;
#207 = VECTOR ( 'NONE', #98, 999.9999999999998863 ) ;
#208 = VERTEX_POINT ( 'NONE', #87 ) ;
#209 = ADVANCED_FACE ( 'NONE', ( #91 ), #204, .F. ) ;
#210 = EDGE_LOOP ( 'NONE', ( #133, #182, #240, #299 ) ) ;
#211 = CIRCLE ( 'NONE', #191, 0.9999999999999995559 ) ;
#212 = LOCAL_TIME ( 9, 22, 17.00000000000000000, #89 ) ;
#213 = DIRECTION ( 'NONE',  ( -3.491481338843133355E-15, 1.224646799147353207E-16, -1.000000000000000000 ) ) ;
#214 = APPROVAL_ROLE ( '' ) ;
#215 = ORIENTED_EDGE ( 'NONE', *, *, #205, .T. ) ;
#216 = DIRECTION ( 'NONE',  ( 3.491481338843133355E-15, -1.224646799147353207E-16, 1.000000000000000000 ) ) ;
#217 = CARTESIAN_POINT ( 'NONE',  ( 0.0000000000000000000, 0.0000000000000000000, 0.0000000000000000000 ) ) ;
#218 = DATE_TIME_ROLE ( 'creation_date' ) ;
#219 = CARTESIAN_POINT ( 'NONE',  ( 1.501336975702547217E-13, 7.498798913309207300E-33, 43.00000000000000000 ) ) ;
#220 = CARTESIAN_POINT ( 'NONE',  ( 1.501336975702547217E-13, -5.265981236333618470E-15, 43.00000000000000000 ) ) ;
#221 = DIRECTION ( 'NONE',  ( 1.798245827342160317E-15, -0.8571673007021098911, 0.5150380749100582634 ) ) ;
#222 = AXIS2_PLACEMENT_3D ( 'NONE', #183, #31, #2 ) ;
#223 = PERSON_AND_ORGANIZATION_ROLE ( 'design_supplier' ) ;
#224 = PLANE ( 'NONE',  #173 ) ;
#225 = DIRECTION ( 'NONE',  ( -4.275831445896958607E-31, -1.000000000000000000, -1.224646799147353207E-16 ) ) ;
#226 = DIRECTION ( 'NONE',  ( 1.000000000000000000, 0.0000000000000000000, 0.0000000000000000000 ) ) ;
#227 = APPROVAL_ROLE ( '' ) ;
#228 = DIRECTION ( 'NONE',  ( -3.491481338843133355E-15, 1.224646799147353207E-16, -1.000000000000000000 ) ) ;
#229 = VECTOR ( 'NONE', #274, 1000.000000000000000 ) ;
#230 = DIRECTION ( 'NONE',  ( 3.491481338843133355E-15, -1.224646799147353207E-16, 1.000000000000000000 ) ) ;
#231 = LOCAL_TIME ( 9, 22, 17.00000000000000000, #194 ) ;
#232 = DIRECTION ( 'NONE',  ( 4.275831445896957731E-31, 1.000000000000000000, 1.224646799147353207E-16 ) ) ;
#233 = AXIS2_PLACEMENT_3D ( 'NONE', #144, #20, #280 ) ;
#234 = VERTEX_POINT ( 'NONE', #292 ) ;
#235 = DIRECTION ( 'NONE',  ( -3.491481338843133355E-15, 1.224646799147353207E-16, -1.000000000000000000 ) ) ;
#236 = CARTESIAN_POINT ( 'NONE',  ( 0.0000000000000000000, 0.0000000000000000000, 0.0000000000000000000 ) ) ;
#237 = CC_DESIGN_DATE_AND_TIME_ASSIGNMENT ( #45, #254, ( #102 ) ) ;
#238 = APPROVAL_STATUS ( 'not_yet_approved' ) ;
#239 =( LENGTH_UNIT ( ) NAMED_UNIT ( * ) SI_UNIT ( .MILLI., .METRE. ) );
#240 = ORIENTED_EDGE ( 'NONE', *, *, #73, .T. ) ;
#241 = EDGE_CURVE ( 'NONE', #142, #334, #270, .T. ) ;
#242 = DIRECTION ( 'NONE',  ( -3.491481338843133355E-15, 1.224646799147353207E-16, -1.000000000000000000 ) ) ;
#243 = PERSON_AND_ORGANIZATION_ROLE ( 'classification_officer' ) ;
#244 = CARTESIAN_POINT ( 'NONE',  ( 1.501336975702547217E-13, -5.265981236333618470E-15, 43.00000000000000000 ) ) ;
#245 = EDGE_CURVE ( 'NONE', #128, #334, #125, .T. ) ;
#246 = APPROVAL_DATE_TIME ( #127, #39 ) ;
#247 = ORIENTED_EDGE ( 'NONE', *, *, #252, .F. ) ;
#248 = CARTESIAN_POINT ( 'NONE',  ( 2.727261730154616097E-15, -1.299999999999994271, 0.7811188047358335051 ) ) ;
#249 = SECURITY_CLASSIFICATION_LEVEL ( 'unclassified' ) ;
#250 = ORIENTED_EDGE ( 'NONE', *, *, #162, .T. ) ;
#251 = FACE_OUTER_BOUND ( 'NONE', #282, .T. ) ;
#252 = EDGE_CURVE ( 'NONE', #334, #128, #288, .T. ) ;
#253 = CARTESIAN_POINT ( 'NONE',  ( 1.490862531686017753E-13, -5.229241832359197610E-15, 42.69999999999999574 ) ) ;
#254 = DATE_TIME_ROLE ( 'classification_date' ) ;
#255 = CYLINDRICAL_SURFACE ( 'NONE', #107, 1.299999999999994937 ) ;
#256 = DIRECTION ( 'NONE',  ( 0.0000000000000000000, 0.0000000000000000000, 1.000000000000000000 ) ) ;
#257 = CARTESIAN_POINT ( 'NONE',  ( 2.072598231260367917E-14, -1.299999999999997158, 11.00000000000000000 ) ) ;
#258 =( GEOMETRIC_REPRESENTATION_CONTEXT ( 3 ) GLOBAL_UNCERTAINTY_ASSIGNED_CONTEXT ( ( #69 ) ) GLOBAL_UNIT_ASSIGNED_CONTEXT ( ( #239, #63, #42 ) ) REPRESENTATION_CONTEXT ( 'NONE', 'WORKASPACE' ) );
#259 = CARTESIAN_POINT ( 'NONE',  ( 3.840629472727446691E-14, 9.748438587302022450E-33, 11.00000000000000000 ) ) ;
#260 = LINE ( 'NONE', #279, #186 ) ;
#261 = COORDINATED_UNIVERSAL_TIME_OFFSET ( 1, 0, .AHEAD. ) ;
#262 = LINE ( 'NONE', #25, #65 ) ;
#263 = EDGE_LOOP ( 'NONE', ( #72, #178, #114, #247 ) ) ;
#264 = CARTESIAN_POINT ( 'NONE',  ( 3.840629472727446691E-14, -1.347111479062088405E-15, 11.00000000000000000 ) ) ;
#265 = EDGE_LOOP ( 'NONE', ( #195, #33 ) ) ;
#266 = EDGE_CURVE ( 'NONE', #90, #337, #156, .T. ) ;
#267 = VERTEX_POINT ( 'NONE', #287 ) ;
#268 = CIRCLE ( 'NONE', #60, 1.299999999999995604 ) ;
#269 = LOCAL_TIME ( 9, 22, 17.00000000000000000, #71 ) ;
#270 = LINE ( 'NONE', #169, #229 ) ;
#271 = EDGE_CURVE ( 'NONE', #9, #267, #318, .T. ) ;
#272 = DIRECTION ( 'NONE',  ( -3.491481338843133355E-15, 1.224646799147353207E-16, -1.000000000000000000 ) ) ;
#273 = CALENDAR_DATE ( 2021, 3, 9 ) ;
#274 = DIRECTION ( 'NONE',  ( -2.382254525458723780E-15, -0.7071067811865453523, -0.7071067811865496822 ) ) ;
#275 = AXIS2_PLACEMENT_3D ( 'NONE', #217, #272, #290 ) ;
#276 = PRODUCT_DEFINITION_SHAPE ( 'NONE', 'NONE',  #97 ) ;
#277 = CARTESIAN_POINT ( 'NONE',  ( 2.727261730154616491E-15, -9.565946439735450186E-17, 0.7811188047358336162 ) ) ;
#278 = PERSON_AND_ORGANIZATION_ROLE ( 'design_owner' ) ;
#279 = CARTESIAN_POINT ( 'NONE',  ( 5.558580879666023943E-31, 1.299999999999994937, 1.592040838891552932E-16 ) ) ;
#280 = DIRECTION ( 'NONE',  ( 0.0000000000000000000, 1.000000000000000000, 0.0000000000000000000 ) ) ;
#281 = MANIFOLD_SOLID_BREP ( 'Corps-Déplacer/Copier1[2]', #320 ) ;
#282 = EDGE_LOOP ( 'NONE', ( #295, #215, #77 ) ) ;
#283 = DIRECTION ( 'NONE',  ( 2.962969145211144983E-31, 1.000000000000000000, 8.340016711426993499E-17 ) ) ;
#284 = EDGE_LOOP ( 'NONE', ( #103, #35 ) ) ;
#285 = APPROVAL ( #322, 'UNSPECIFIED' ) ;
#286 = ORIENTED_EDGE ( 'NONE', *, *, #312, .T. ) ;
#287 = CARTESIAN_POINT ( 'NONE',  ( 2.886465814043772105E-15, 1.299999999999994271, 0.7811188047358337272 ) ) ;
#288 = CIRCLE ( 'NONE', #297, 1.299999999999999600 ) ;
#289 = CARTESIAN_POINT ( 'NONE',  ( 2.727261730154616491E-15, -9.565946439735450186E-17, 0.7811188047358336162 ) ) ;
#290 = DIRECTION ( 'NONE',  ( 4.275831445896957731E-31, 1.000000000000000000, 1.224646799147353207E-16 ) ) ;
#291 = CARTESIAN_POINT ( 'NONE',  ( 3.840629472727446691E-14, 1.299999999999994271, 11.00000000000000000 ) ) ;
#292 = CARTESIAN_POINT ( 'NONE',  ( 3.840629472727446691E-14, 1.299999999999994271, 11.00000000000000000 ) ) ;
#293 = EDGE_CURVE ( 'NONE', #13, #267, #260, .T. ) ;
#294 = PERSON_AND_ORGANIZATION_ROLE ( 'creator' ) ;
#295 = ORIENTED_EDGE ( 'NONE', *, *, #271, .F. ) ;
#296 = DIRECTION ( 'NONE',  ( -3.491481338843133355E-15, 1.224646799147353207E-16, -1.000000000000000000 ) ) ;
#297 = AXIS2_PLACEMENT_3D ( 'NONE', #58, #81, #190 ) ;
#298 = CC_DESIGN_PERSON_AND_ORGANIZATION_ASSIGNMENT ( #83, #243, ( #102 ) ) ;
#299 = ORIENTED_EDGE ( 'NONE', *, *, #325, .F. ) ;
#300 = VECTOR ( 'NONE', #221, 1000.000000000000000 ) ;
#301 = VECTOR ( 'NONE', #313, 1000.000000000000000 ) ;
#302 = CARTESIAN_POINT ( 'NONE',  ( 1.490862531686017753E-13, 1.299999999999994271, 42.69999999999999574 ) ) ;
#303 = DIRECTION ( 'NONE',  ( -3.491481338843133355E-15, 1.224646799147353207E-16, -1.000000000000000000 ) ) ;
#304 = EDGE_LOOP ( 'NONE', ( #49, #43, #309, #161 ) ) ;
#305 = EDGE_CURVE ( 'NONE', #90, #13, #132, .T. ) ;
#306 = APPROVAL_PERSON_ORGANIZATION ( #126, #39, #214 ) ;
#307 = PERSON ( 'UNSPECIFIED', 'UNSPECIFIED', 'UNSPECIFIED', ('UNSPECIFIED'), ('UNSPECIFIED'), ('UNSPECIFIED') ) ;
#308 = EDGE_LOOP ( 'NONE', ( #158, #189, #30, #54 ) ) ;
#309 = ORIENTED_EDGE ( 'NONE', *, *, #312, .F. ) ;
#310 = ORIENTED_EDGE ( 'NONE', *, *, #245, .F. ) ;
#311 = CC_DESIGN_APPROVAL ( #39, ( #97 ) ) ;
#312 = EDGE_CURVE ( 'NONE', #267, #337, #84, .T. ) ;
#313 = DIRECTION ( 'NONE',  ( -3.491481338843133355E-15, 1.224646799147353207E-16, -1.000000000000000000 ) ) ;
#314 = FACE_OUTER_BOUND ( 'NONE', #263, .T. ) ;
#315 = APPROVAL ( #123, 'UNSPECIFIED' ) ;
#316 = CALENDAR_DATE ( 2021, 3, 9 ) ;
#317 = DIRECTION ( 'NONE',  ( 0.0000000000000000000, 1.000000000000000000, 0.0000000000000000000 ) ) ;
#318 = LINE ( 'NONE', #188, #207 ) ;
#319 = EDGE_CURVE ( 'NONE', #337, #267, #66, .T. ) ;
#320 = CLOSED_SHELL ( 'NONE', ( #111, #109, #53, #185, #1 ) ) ;
#321 = DIRECTION ( 'NONE',  ( -3.491481338843133355E-15, 1.224646799147353207E-16, -1.000000000000000000 ) ) ;
#322 = APPROVAL_STATUS ( 'not_yet_approved' ) ;
#323 = CALENDAR_DATE ( 2021, 3, 9 ) ;
#324 = AXIS2_PLACEMENT_3D ( 'NONE', #196, #216, #86 ) ;
#325 = EDGE_CURVE ( 'NONE', #105, #234, #61, .T. ) ;
#326 = APPLICATION_CONTEXT ( 'configuration controlled 3d designs of mechanical parts and assemblies' ) ;
#327 = DIRECTION ( 'NONE',  ( 4.275831445896957731E-31, 1.000000000000000000, 1.224646799147353207E-16 ) ) ;
#328 = EDGE_CURVE ( 'NONE', #334, #105, #151, .T. ) ;
#329 = CARTESIAN_POINT ( 'NONE',  ( 2.727261730154616491E-15, -9.565946439735450186E-17, 0.7811188047358336162 ) ) ;
#330 = DIRECTION ( 'NONE',  ( 0.0000000000000000000, 1.000000000000000000, 0.0000000000000000000 ) ) ;
#331 = DIRECTION ( 'NONE',  ( -3.491481338843133355E-15, 1.224646799147353207E-16, -1.000000000000000000 ) ) ;
#332 = VECTOR ( 'NONE', #303, 1000.000000000000000 ) ;
#333 = APPROVAL_PERSON_ORGANIZATION ( #120, #315, #227 ) ;
#334 = VERTEX_POINT ( 'NONE', #131 ) ;
#335 = CARTESIAN_POINT ( 'NONE',  ( 2.727261730154616097E-15, -1.299999999999994271, 0.7811188047358335051 ) ) ;
#336 = DIRECTION ( 'NONE',  ( -3.491481338843133355E-15, 1.224646799147353207E-16, -1.000000000000000000 ) ) ;
#337 = VERTEX_POINT ( 'NONE', #335 ) ;
ENDSEC;
END-ISO-10303-21;
