ISO-10303-21;
HEADER;
FILE_DESCRIPTION (( 'STEP AP203' ),
    '1' );
FILE_NAME ('41858.step',
    '2021-11-01T10:35:10',
    ( '' ),
    ( '' ),
    'SwSTEP 2.0',
    'SolidWorks 2019',
    '' );
FILE_SCHEMA (( 'CONFIG_CONTROL_DESIGN' ));
ENDSEC;

DATA;
#1 = APPLICATION_PROTOCOL_DEFINITION ( 'international standard', 'config_control_design', 1994, #40 ) ;
#2 = DIRECTION ( 'NONE',  ( -3.491481338843133355E-15, 1.224646799147353207E-16, -1.000000000000000000 ) ) ;
#3 = EDGE_LOOP ( 'NONE', ( #208 ) ) ;
#4 = CARTESIAN_POINT ( 'NONE',  ( 4.463468607437971024E-14, -2.076449974346730531E-15, 12.78388218141499699 ) ) ;
#5 = CC_DESIGN_PERSON_AND_ORGANIZATION_ASSIGNMENT ( #186, #134, ( #109 ) ) ;
#6 = FACE_OUTER_BOUND ( 'NONE', #204, .T. ) ;
#7 = CIRCLE ( 'NONE', #179, 2.999999999999999112 ) ;
#8 = APPROVAL ( #30, 'UNSPECIFIED' ) ;
#9 = DIRECTION ( 'NONE',  ( -3.491481338843133355E-15, 1.224646799147353207E-16, -1.000000000000000000 ) ) ;
#10 = DIRECTION ( 'NONE',  ( 0.0000000000000000000, 1.000000000000000000, 0.0000000000000000000 ) ) ;
#11 = DIRECTION ( 'NONE',  ( 0.0000000000000000000, -1.000000000000000000, 0.0000000000000000000 ) ) ;
#12 = EDGE_CURVE ( 'NONE', #142, #142, #7, .T. ) ;
#13 = DIRECTION ( 'NONE',  ( 3.491481338843133355E-15, -1.224646799147353207E-16, 1.000000000000000000 ) ) ;
#14 = EDGE_CURVE ( 'NONE', #91, #91, #81, .T. ) ;
#15 =( LENGTH_UNIT ( ) NAMED_UNIT ( * ) SI_UNIT ( .MILLI., .METRE. ) );
#16 =( NAMED_UNIT ( * ) PLANE_ANGLE_UNIT ( ) SI_UNIT ( $, .RADIAN. ) );
#17 = VERTEX_POINT ( 'NONE', #203 ) ;
#18 = APPROVAL_PERSON_ORGANIZATION ( #71, #8, #199 ) ;
#19 = SECURITY_CLASSIFICATION ( '', '', #20 ) ;
#20 = SECURITY_CLASSIFICATION_LEVEL ( 'unclassified' ) ;
#21 = ADVANCED_FACE ( 'NONE', ( #165 ), #76, .T. ) ;
#22 = EDGE_LOOP ( 'NONE', ( #56 ) ) ;
#23 = EDGE_LOOP ( 'NONE', ( #150 ) ) ;
#24 = SHAPE_DEFINITION_REPRESENTATION ( #148, #158 ) ;
#25 = CARTESIAN_POINT ( 'NONE',  ( 1.990144363140586139E-13, -6.980486755139912911E-15, 57.00000000000000000 ) ) ;
#26 = DIRECTION ( 'NONE',  ( -4.285855558155654155E-31, -1.000000000000000000, -1.227517819005651059E-16 ) ) ;
#27 = FACE_OUTER_BOUND ( 'NONE', #22, .T. ) ;
#28 = CARTESIAN_POINT ( 'NONE',  ( 3.491481338843133355E-14, 2.249639673992779843E-32, 10.00000000000000000 ) ) ;
#29 = CYLINDRICAL_SURFACE ( 'NONE', #182, 2.499999999999999556 ) ;
#30 = APPROVAL_STATUS ( 'not_yet_approved' ) ;
#31 = DATE_AND_TIME ( #47, #100 ) ;
#32 = AXIS2_PLACEMENT_3D ( 'NONE', #190, #41, #110 ) ;
#33 = DATE_TIME_ROLE ( 'classification_date' ) ;
#34 = APPROVAL_ROLE ( '' ) ;
#35 = CARTESIAN_POINT ( 'NONE',  ( 0.0000000000000000000, 0.0000000000000000000, 0.0000000000000000000 ) ) ;
#36 = ORIENTED_EDGE ( 'NONE', *, *, #210, .T. ) ;
#37 = AXIS2_PLACEMENT_3D ( 'NONE', #25, #61, #146 ) ;
#38 = EDGE_CURVE ( 'NONE', #78, #78, #131, .T. ) ;
#39 = AXIS2_PLACEMENT_3D ( 'NONE', #28, #89, #112 ) ;
#40 = APPLICATION_CONTEXT ( 'configuration controlled 3d designs of mechanical parts and assemblies' ) ;
#41 = DIRECTION ( 'NONE',  ( 3.491481338843133355E-15, -1.227517819005651059E-16, 1.000000000000000000 ) ) ;
#42 = CYLINDRICAL_SURFACE ( 'NONE', #72, 2.999999999999996447 ) ;
#43 = ADVANCED_FACE ( 'NONE', ( #115 ), #218, .F. ) ;
#44 = PLANE ( 'NONE',  #60 ) ;
#45 = CARTESIAN_POINT ( 'NONE',  ( 1.990144363140586139E-13, 1.949687717460403943E-32, 57.00000000000000000 ) ) ;
#46 = CARTESIAN_POINT ( 'NONE',  ( -1.071463889538912794E-30, 1.512091724654242338E-32, -3.068794547514125921E-16 ) ) ;
#47 = CALENDAR_DATE ( 2021, 1, 11 ) ;
#48 = CALENDAR_DATE ( 2021, 1, 11 ) ;
#49 = DIRECTION ( 'NONE',  ( 0.0000000000000000000, 0.0000000000000000000, 1.000000000000000000 ) ) ;
#50 = ADVANCED_FACE ( 'NONE', ( #79 ), #44, .F. ) ;
#51 = CARTESIAN_POINT ( 'NONE',  ( 3.491481338843132724E-14, -2.500000000000001332, 9.999999999999998224 ) ) ;
#52 = ORIENTED_EDGE ( 'NONE', *, *, #38, .T. ) ;
#53 = ADVANCED_FACE ( 'NONE', ( #130, #128 ), #42, .T. ) ;
#54 = EDGE_LOOP ( 'NONE', ( #52 ) ) ;
#55 = CALENDAR_DATE ( 2021, 1, 11 ) ;
#56 = ORIENTED_EDGE ( 'NONE', *, *, #14, .T. ) ;
#57 = DIRECTION ( 'NONE',  ( -4.285855558155653280E-31, -1.000000000000000000, -1.227517819005651059E-16 ) ) ;
#58 = ORGANIZATION ( 'UNSPECIFIED', 'UNSPECIFIED', '' ) ;
#59 = APPROVAL_PERSON_ORGANIZATION ( #119, #67, #34 ) ;
#60 = AXIS2_PLACEMENT_3D ( 'NONE', #214, #13, #145 ) ;
#61 = DIRECTION ( 'NONE',  ( -3.491481338843133355E-15, 1.224646799147353207E-16, -1.000000000000000000 ) ) ;
#62 = CARTESIAN_POINT ( 'NONE',  ( 1.990144363140586139E-13, 2.599999999999992095, 57.00000000000000000 ) ) ;
#63 = DIRECTION ( 'NONE',  ( 3.491481338843133355E-15, -1.224646799147353207E-16, 1.000000000000000000 ) ) ;
#64 = FACE_OUTER_BOUND ( 'NONE', #188, .T. ) ;
#65 = CIRCLE ( 'NONE', #32, 2.500000000000000000 ) ;
#66 = LOCAL_TIME ( 11, 35, 10.00000000000000000, #160 ) ;
#67 = APPROVAL ( #169, 'UNSPECIFIED' ) ;
#68 = DATE_AND_TIME ( #48, #202 ) ;
#69 = DIRECTION ( 'NONE',  ( 1.000000000000000000, 0.0000000000000000000, 0.0000000000000000000 ) ) ;
#70 = PERSON_AND_ORGANIZATION_ROLE ( 'creator' ) ;
#71 = PERSON_AND_ORGANIZATION ( #102, #58 ) ;
#72 = AXIS2_PLACEMENT_3D ( 'NONE', #195, #9, #111 ) ;
#73 = PRODUCT_DEFINITION_FORMATION_WITH_SPECIFIED_SOURCE ( 'ANY', '', #109, .NOT_KNOWN. ) ;
#74 = MANIFOLD_SOLID_BREP ( 'Corps-Déplacer/Copier1[2]', #201 ) ;
#75 = DIRECTION ( 'NONE',  ( -3.491481338843133355E-15, 1.227517819005651059E-16, -1.000000000000000000 ) ) ;
#76 = PLANE ( 'NONE',  #39 ) ;
#77 = APPROVAL ( #149, 'UNSPECIFIED' ) ;
#78 = VERTEX_POINT ( 'NONE', #62 ) ;
#79 = FACE_OUTER_BOUND ( 'NONE', #125, .T. ) ;
#80 = CARTESIAN_POINT ( 'NONE',  ( 3.491481338843132724E-14, -1.227517819005650763E-15, 9.999999999999998224 ) ) ;
#81 = CIRCLE ( 'NONE', #84, 2.999999999999996447 ) ;
#82 = APPROVAL_DATE_TIME ( #167, #8 ) ;
#83 = APPROVAL_DATE_TIME ( #181, #67 ) ;
#84 = AXIS2_PLACEMENT_3D ( 'NONE', #4, #75, #193 ) ;
#85 = ORIENTED_EDGE ( 'NONE', *, *, #12, .T. ) ;
#86 = PERSON_AND_ORGANIZATION ( #102, #58 ) ;
#87 = ORIENTED_EDGE ( 'NONE', *, *, #90, .T. ) ;
#88 = TOROIDAL_SURFACE ( 'NONE', #157, 10.50000000000000000, 8.000000000000000000 ) ;
#89 = DIRECTION ( 'NONE',  ( 3.491481338843133355E-15, -1.224646799147353207E-16, 1.000000000000000000 ) ) ;
#90 = EDGE_CURVE ( 'NONE', #129, #129, #212, .T. ) ;
#91 = VERTEX_POINT ( 'NONE', #162 ) ;
#92 = AXIS2_PLACEMENT_3D ( 'NONE', #117, #63, #97 ) ;
#93 = ADVANCED_FACE ( 'NONE', ( #64, #96 ), #189, .T. ) ;
#94 = PLANE ( 'NONE',  #95 ) ;
#95 = AXIS2_PLACEMENT_3D ( 'NONE', #45, #166, #180 ) ;
#96 = FACE_BOUND ( 'NONE', #54, .T. ) ;
#97 = DIRECTION ( 'NONE',  ( -4.275831445896958607E-31, -1.000000000000000000, -1.224646799147353207E-16 ) ) ;
#98 = COORDINATED_UNIVERSAL_TIME_OFFSET ( 1, 0, .AHEAD. ) ;
#99 = PERSON_AND_ORGANIZATION ( #102, #58 ) ;
#100 = LOCAL_TIME ( 11, 35, 10.00000000000000000, #198 ) ;
#101 = PERSON_AND_ORGANIZATION ( #102, #58 ) ;
#102 = PERSON ( 'UNSPECIFIED', 'UNSPECIFIED', 'UNSPECIFIED', ('UNSPECIFIED'), ('UNSPECIFIED'), ('UNSPECIFIED') ) ;
#103 = COORDINATED_UNIVERSAL_TIME_OFFSET ( 1, 0, .AHEAD. ) ;
#104 = COORDINATED_UNIVERSAL_TIME_OFFSET ( 1, 0, .AHEAD. ) ;
#105 = CLOSED_SHELL ( 'NONE', ( #53, #93, #163, #126, #43 ) ) ;
#106 = EDGE_LOOP ( 'NONE', ( #87 ) ) ;
#107 = DATE_AND_TIME ( #55, #66 ) ;
#108 = ORIENTED_EDGE ( 'NONE', *, *, #90, .F. ) ;
#109 = PRODUCT ( '41858', '41858', '', ( #118 ) ) ;
#110 = DIRECTION ( 'NONE',  ( 0.0000000000000000000, -1.000000000000000000, 0.0000000000000000000 ) ) ;
#111 = DIRECTION ( 'NONE',  ( 4.275831445896958607E-31, 1.000000000000000000, 1.224646799147353207E-16 ) ) ;
#112 = DIRECTION ( 'NONE',  ( -4.275831445896958607E-31, -1.000000000000000000, -1.224646799147353207E-16 ) ) ;
#113 = CC_DESIGN_PERSON_AND_ORGANIZATION_ASSIGNMENT ( #171, #70, ( #73 ) ) ;
#114 = CC_DESIGN_SECURITY_CLASSIFICATION ( #19, ( #73 ) ) ;
#115 = FACE_OUTER_BOUND ( 'NONE', #173, .T. ) ;
#116 = APPROVAL_PERSON_ORGANIZATION ( #101, #77, #174 ) ;
#117 = CARTESIAN_POINT ( 'NONE',  ( 3.491481338843133355E-14, 2.249639673992779843E-32, 10.00000000000000000 ) ) ;
#118 = MECHANICAL_CONTEXT ( 'NONE', #40, 'mechanical' ) ;
#119 = PERSON_AND_ORGANIZATION ( #102, #58 ) ;
#120 = ORIENTED_EDGE ( 'NONE', *, *, #200, .F. ) ;
#121 = DESIGN_CONTEXT ( 'detailed design', #152, 'design' ) ;
#122 = EDGE_LOOP ( 'NONE', ( #108 ) ) ;
#123 = APPROVAL_DATE_TIME ( #107, #77 ) ;
#124 = CARTESIAN_POINT ( 'NONE',  ( 1.976178437785213858E-13, -6.931500883174021061E-15, 56.60000000000000853 ) ) ;
#125 = EDGE_LOOP ( 'NONE', ( #120 ) ) ;
#126 = ADVANCED_FACE ( 'NONE', ( #6, #27 ), #88, .F. ) ;
#127 = CARTESIAN_POINT ( 'NONE',  ( 3.491481338843132724E-14, -1.734723475976807094E-15, 9.999999999999998224 ) ) ;
#128 = FACE_OUTER_BOUND ( 'NONE', #23, .T. ) ;
#129 = VERTEX_POINT ( 'NONE', #194 ) ;
#130 = FACE_OUTER_BOUND ( 'NONE', #156, .T. ) ;
#131 = CIRCLE ( 'NONE', #37, 2.599999999999999201 ) ;
#132 = DIRECTION ( 'NONE',  ( 3.491481338843133355E-15, -1.227517819005651059E-16, 1.000000000000000000 ) ) ;
#133 = PERSON_AND_ORGANIZATION_ROLE ( 'classification_officer' ) ;
#134 = PERSON_AND_ORGANIZATION_ROLE ( 'design_owner' ) ;
#135 = LOCAL_TIME ( 11, 35, 10.00000000000000000, #98 ) ;
#136 = ORIENTED_EDGE ( 'NONE', *, *, #38, .F. ) ;
#137 = DATE_TIME_ROLE ( 'creation_date' ) ;
#138 = DIRECTION ( 'NONE',  ( 0.0000000000000000000, 1.000000000000000000, 0.0000000000000000000 ) ) ;
#139 = ORIENTED_EDGE ( 'NONE', *, *, #12, .F. ) ;
#140 = FACE_OUTER_BOUND ( 'NONE', #3, .T. ) ;
#141 = MANIFOLD_SOLID_BREP ( 'Corps-Déplacer/Copier1[1]', #105 ) ;
#142 = VERTEX_POINT ( 'NONE', #176 ) ;
#143 =( GEOMETRIC_REPRESENTATION_CONTEXT ( 3 ) GLOBAL_UNCERTAINTY_ASSIGNED_CONTEXT ( ( #206 ) ) GLOBAL_UNIT_ASSIGNED_CONTEXT ( ( #15, #16, #155 ) ) REPRESENTATION_CONTEXT ( 'NONE', 'WORKASPACE' ) );
#144 = CC_DESIGN_APPROVAL ( #8, ( #221 ) ) ;
#145 = DIRECTION ( 'NONE',  ( -4.275831445896958607E-31, -1.000000000000000000, -1.224646799147353207E-16 ) ) ;
#146 = DIRECTION ( 'NONE',  ( 0.0000000000000000000, 1.000000000000000000, 0.0000000000000000000 ) ) ;
#147 = DIRECTION ( 'NONE',  ( 3.491481338843133355E-15, -1.227517819005651059E-16, 1.000000000000000000 ) ) ;
#148 = PRODUCT_DEFINITION_SHAPE ( 'NONE', 'NONE',  #221 ) ;
#149 = APPROVAL_STATUS ( 'not_yet_approved' ) ;
#150 = ORIENTED_EDGE ( 'NONE', *, *, #14, .F. ) ;
#151 = AXIS2_PLACEMENT_3D ( 'NONE', #35, #49, #69 ) ;
#152 = APPLICATION_CONTEXT ( 'configuration controlled 3d designs of mechanical parts and assemblies' ) ;
#153 = CC_DESIGN_DATE_AND_TIME_ASSIGNMENT ( #68, #137, ( #221 ) ) ;
#154 = EDGE_LOOP ( 'NONE', ( #136 ) ) ;
#155 =( NAMED_UNIT ( * ) SI_UNIT ( $, .STERADIAN. ) SOLID_ANGLE_UNIT ( ) );
#156 = EDGE_LOOP ( 'NONE', ( #85 ) ) ;
#157 = AXIS2_PLACEMENT_3D ( 'NONE', #127, #132, #178 ) ;
#158 = ADVANCED_BREP_SHAPE_REPRESENTATION ( '41858', ( #141, #74, #151 ), #143 ) ;
#159 = DIRECTION ( 'NONE',  ( -3.491481338843133355E-15, 1.224646799147353207E-16, -1.000000000000000000 ) ) ;
#160 = COORDINATED_UNIVERSAL_TIME_OFFSET ( 1, 0, .AHEAD. ) ;
#161 = AXIS2_PLACEMENT_3D ( 'NONE', #46, #209, #57 ) ;
#162 = CARTESIAN_POINT ( 'NONE',  ( 4.463468607437971024E-14, 2.999999999999994227, 12.78388218141499699 ) ) ;
#163 = ADVANCED_FACE ( 'NONE', ( #164 ), #94, .F. ) ;
#164 = FACE_OUTER_BOUND ( 'NONE', #154, .T. ) ;
#165 = FACE_OUTER_BOUND ( 'NONE', #106, .T. ) ;
#166 = DIRECTION ( 'NONE',  ( -3.491481338843133355E-15, 1.224646799147353207E-16, -1.000000000000000000 ) ) ;
#167 = DATE_AND_TIME ( #205, #135 ) ;
#168 = CC_DESIGN_PERSON_AND_ORGANIZATION_ASSIGNMENT ( #86, #133, ( #19 ) ) ;
#169 = APPROVAL_STATUS ( 'not_yet_approved' ) ;
#170 = APPLICATION_PROTOCOL_DEFINITION ( 'international standard', 'config_control_design', 1994, #152 ) ;
#171 = PERSON_AND_ORGANIZATION ( #102, #58 ) ;
#172 = PERSON_AND_ORGANIZATION_ROLE ( 'design_supplier' ) ;
#173 = EDGE_LOOP ( 'NONE', ( #187 ) ) ;
#174 = APPROVAL_ROLE ( '' ) ;
#175 = ADVANCED_FACE ( 'NONE', ( #140, #217 ), #29, .T. ) ;
#176 = CARTESIAN_POINT ( 'NONE',  ( 1.976178437785213858E-13, 2.999999999999992450, 56.60000000000000853 ) ) ;
#177 = CARTESIAN_POINT ( 'NONE',  ( 1.990144363140586139E-13, -6.980486755139912911E-15, 57.00000000000000000 ) ) ;
#178 = DIRECTION ( 'NONE',  ( -4.343272410919458453E-31, -1.000000000000000000, -1.227517819005651059E-16 ) ) ;
#179 = AXIS2_PLACEMENT_3D ( 'NONE', #124, #2, #138 ) ;
#180 = DIRECTION ( 'NONE',  ( 4.275831445896958607E-31, 1.000000000000000000, 1.224646799147353207E-16 ) ) ;
#181 = DATE_AND_TIME ( #184, #183 ) ;
#182 = AXIS2_PLACEMENT_3D ( 'NONE', #219, #197, #26 ) ;
#183 = LOCAL_TIME ( 11, 35, 10.00000000000000000, #103 ) ;
#184 = CALENDAR_DATE ( 2021, 1, 11 ) ;
#185 = CC_DESIGN_DATE_AND_TIME_ASSIGNMENT ( #31, #33, ( #19 ) ) ;
#186 = PERSON_AND_ORGANIZATION ( #102, #58 ) ;
#187 = ORIENTED_EDGE ( 'NONE', *, *, #210, .F. ) ;
#188 = EDGE_LOOP ( 'NONE', ( #139 ) ) ;
#189 = CONICAL_SURFACE ( 'NONE', #215, 2.599999999999999201, 0.7853981633974602694 ) ;
#190 = CARTESIAN_POINT ( 'NONE',  ( 3.491481338843132724E-14, -1.227517819005650763E-15, 9.999999999999998224 ) ) ;
#191 = CC_DESIGN_PERSON_AND_ORGANIZATION_ASSIGNMENT ( #223, #220, ( #221 ) ) ;
#192 = PRODUCT_RELATED_PRODUCT_CATEGORY ( 'detail', '', ( #109 ) ) ;
#193 = DIRECTION ( 'NONE',  ( 0.0000000000000000000, 1.000000000000000000, 0.0000000000000000000 ) ) ;
#194 = CARTESIAN_POINT ( 'NONE',  ( 3.491481338843132724E-14, -2.500000000000001332, 9.999999999999998224 ) ) ;
#195 = CARTESIAN_POINT ( 'NONE',  ( 0.0000000000000000000, 0.0000000000000000000, 0.0000000000000000000 ) ) ;
#196 = CC_DESIGN_PERSON_AND_ORGANIZATION_ASSIGNMENT ( #99, #172, ( #73 ) ) ;
#197 = DIRECTION ( 'NONE',  ( 3.491481338843133355E-15, -1.227517819005651059E-16, 1.000000000000000000 ) ) ;
#198 = COORDINATED_UNIVERSAL_TIME_OFFSET ( 1, 0, .AHEAD. ) ;
#199 = APPROVAL_ROLE ( '' ) ;
#200 = EDGE_CURVE ( 'NONE', #17, #17, #222, .T. ) ;
#201 = CLOSED_SHELL ( 'NONE', ( #21, #175, #50 ) ) ;
#202 = LOCAL_TIME ( 11, 35, 10.00000000000000000, #104 ) ;
#203 = CARTESIAN_POINT ( 'NONE',  ( -2.142927779077825589E-30, -2.499999999999998668, -6.137589095028251842E-16 ) ) ;
#204 = EDGE_LOOP ( 'NONE', ( #36 ) ) ;
#205 = CALENDAR_DATE ( 2021, 1, 11 ) ;
#206 = UNCERTAINTY_MEASURE_WITH_UNIT (LENGTH_MEASURE( 1.000000000000000082E-05 ), #15, 'distance_accuracy_value', 'NONE');
#207 = VERTEX_POINT ( 'NONE', #51 ) ;
#208 = ORIENTED_EDGE ( 'NONE', *, *, #200, .T. ) ;
#209 = DIRECTION ( 'NONE',  ( 3.491481338843133355E-15, -1.227517819005651059E-16, 1.000000000000000000 ) ) ;
#210 = EDGE_CURVE ( 'NONE', #207, #207, #65, .T. ) ;
#211 = AXIS2_PLACEMENT_3D ( 'NONE', #80, #147, #11 ) ;
#212 = CIRCLE ( 'NONE', #211, 2.500000000000000000 ) ;
#213 = CC_DESIGN_APPROVAL ( #67, ( #73 ) ) ;
#214 = CARTESIAN_POINT ( 'NONE',  ( -8.551623707117318460E-31, 2.999505821189316650E-32, -2.449282375357277963E-16 ) ) ;
#215 = AXIS2_PLACEMENT_3D ( 'NONE', #177, #159, #10 ) ;
#216 = CC_DESIGN_APPROVAL ( #77, ( #19 ) ) ;
#217 = FACE_OUTER_BOUND ( 'NONE', #122, .T. ) ;
#218 = PLANE ( 'NONE',  #92 ) ;
#219 = CARTESIAN_POINT ( 'NONE',  ( -6.413731847436034514E-31, 0.0000000000000000000, -1.836965810494968570E-16 ) ) ;
#220 = PERSON_AND_ORGANIZATION_ROLE ( 'creator' ) ;
#221 = PRODUCT_DEFINITION ( 'UNKNOWN', '', #73, #121 ) ;
#222 = CIRCLE ( 'NONE', #161, 2.499999999999998668 ) ;
#223 = PERSON_AND_ORGANIZATION ( #102, #58 ) ;
ENDSEC;
END-ISO-10303-21;
