ISO-10303-21;
HEADER;
FILE_DESCRIPTION (( 'STEP AP203' ),
    '1' );
FILE_NAME ('41856.step',
    '2021-11-01T09:16:11',
    ( '' ),
    ( '' ),
    'SwSTEP 2.0',
    'SolidWorks 2019',
    '' );
FILE_SCHEMA (( 'CONFIG_CONTROL_DESIGN' ));
ENDSEC;

DATA;
#1 = ORGANIZATION ( 'UNSPECIFIED', 'UNSPECIFIED', '' ) ;
#2 = CARTESIAN_POINT ( 'NONE',  ( 2.793185071074506684E-14, 2.249639673992778475E-32, 8.000000000000000000 ) ) ;
#3 = PERSON_AND_ORGANIZATION_ROLE ( 'classification_officer' ) ;
#4 = DATE_AND_TIME ( #25, #40 ) ;
#5 = DATE_AND_TIME ( #192, #144 ) ;
#6 = PERSON_AND_ORGANIZATION ( #64, #1 ) ;
#7 = ORIENTED_EDGE ( 'NONE', *, *, #98, .T. ) ;
#8 = EDGE_LOOP ( 'NONE', ( #109 ) ) ;
#9 = ORIENTED_EDGE ( 'NONE', *, *, #219, .T. ) ;
#10 = CIRCLE ( 'NONE', #214, 1.999999999999997335 ) ;
#11 = EDGE_CURVE ( 'NONE', #29, #29, #111, .T. ) ;
#12 = EDGE_LOOP ( 'NONE', ( #42 ) ) ;
#13 = CARTESIAN_POINT ( 'NONE',  ( 2.793185071074506053E-14, -9.820142552045206497E-16, 7.999999999999998224 ) ) ;
#14 = DIRECTION ( 'NONE',  ( 3.491481338843133355E-15, -1.227517819005651059E-16, 1.000000000000000000 ) ) ;
#15 = AXIS2_PLACEMENT_3D ( 'NONE', #134, #46, #117 ) ;
#16 = FACE_OUTER_BOUND ( 'NONE', #181, .T. ) ;
#17 = EDGE_CURVE ( 'NONE', #166, #166, #89, .T. ) ;
#18 = DIRECTION ( 'NONE',  ( -3.491481338843133355E-15, 1.224646799147353207E-16, -1.000000000000000000 ) ) ;
#19 = DIRECTION ( 'NONE',  ( -4.285855558155653280E-31, -1.000000000000000000, -1.227517819005651059E-16 ) ) ;
#20 = APPLICATION_PROTOCOL_DEFINITION ( 'international standard', 'config_control_design', 1994, #189 ) ;
#21 = CC_DESIGN_PERSON_AND_ORGANIZATION_ASSIGNMENT ( #67, #23, ( #202 ) ) ;
#22 = CARTESIAN_POINT ( 'NONE',  ( 2.793185071074506053E-14, -1.999999999999998224, 7.999999999999998224 ) ) ;
#23 = PERSON_AND_ORGANIZATION_ROLE ( 'design_owner' ) ;
#24 = ADVANCED_FACE ( 'NONE', ( #205, #61 ), #84, .F. ) ;
#25 = CALENDAR_DATE ( 2021, 1, 11 ) ;
#26 = SECURITY_CLASSIFICATION ( '', '', #35 ) ;
#27 = EDGE_LOOP ( 'NONE', ( #72 ) ) ;
#28 = LOCAL_TIME ( 10, 16, 11.00000000000000000, #157 ) ;
#29 = VERTEX_POINT ( 'NONE', #99 ) ;
#30 = CARTESIAN_POINT ( 'NONE',  ( -1.282749722297852494E-30, 4.499280360008248009E-32, -3.673941223821286377E-16 ) ) ;
#31 = VERTEX_POINT ( 'NONE', #101 ) ;
#32 = DIRECTION ( 'NONE',  ( -3.491481338843133355E-15, 1.224646799147353207E-16, -1.000000000000000000 ) ) ;
#33 = CARTESIAN_POINT ( 'NONE',  ( 1.990144363140586139E-13, -6.980486755139912911E-15, 57.00000000000000000 ) ) ;
#34 = CIRCLE ( 'NONE', #165, 1.999999999999997335 ) ;
#35 = SECURITY_CLASSIFICATION_LEVEL ( 'unclassified' ) ;
#36 = CARTESIAN_POINT ( 'NONE',  ( 1.969195475107526960E-13, 2.999999999999989786, 56.39999999999999147 ) ) ;
#37 = PERSON_AND_ORGANIZATION ( #64, #1 ) ;
#38 = ORIENTED_EDGE ( 'NONE', *, *, #180, .T. ) ;
#39 = ORIENTED_EDGE ( 'NONE', *, *, #17, .F. ) ;
#40 = LOCAL_TIME ( 10, 16, 11.00000000000000000, #139 ) ;
#41 = APPROVAL_ROLE ( '' ) ;
#42 = ORIENTED_EDGE ( 'NONE', *, *, #11, .F. ) ;
#43 = DIRECTION ( 'NONE',  ( -4.275831445896958607E-31, -1.000000000000000000, -1.224646799147353207E-16 ) ) ;
#44 = CC_DESIGN_APPROVAL ( #71, ( #26 ) ) ;
#45 = FACE_OUTER_BOUND ( 'NONE', #92, .T. ) ;
#46 = DIRECTION ( 'NONE',  ( -3.491481338843133355E-15, 1.224646799147353207E-16, -1.000000000000000000 ) ) ;
#47 = FACE_OUTER_BOUND ( 'NONE', #113, .T. ) ;
#48 = CIRCLE ( 'NONE', #80, 1.999999999999998668 ) ;
#49 = CARTESIAN_POINT ( 'NONE',  ( 2.793185071074506053E-14, -1.734723475976807094E-15, 7.999999999999998224 ) ) ;
#50 = PERSON_AND_ORGANIZATION_ROLE ( 'design_supplier' ) ;
#51 = DATE_AND_TIME ( #210, #53 ) ;
#52 = DIRECTION ( 'NONE',  ( 0.0000000000000000000, 0.0000000000000000000, 1.000000000000000000 ) ) ;
#53 = LOCAL_TIME ( 10, 16, 11.00000000000000000, #65 ) ;
#54 = PRODUCT_DEFINITION ( 'UNKNOWN', '', #129, #114 ) ;
#55 = CARTESIAN_POINT ( 'NONE',  ( 1.990144363140586139E-13, -6.980486755139912911E-15, 57.00000000000000000 ) ) ;
#56 = CC_DESIGN_PERSON_AND_ORGANIZATION_ASSIGNMENT ( #6, #85, ( #54 ) ) ;
#57 = CARTESIAN_POINT ( 'NONE',  ( 2.793185071074506053E-14, -1.999999999999998224, 7.999999999999998224 ) ) ;
#58 = AXIS2_PLACEMENT_3D ( 'NONE', #30, #188, #167 ) ;
#59 = APPROVAL ( #127, 'UNSPECIFIED' ) ;
#60 = DIRECTION ( 'NONE',  ( -3.491481338843133355E-15, 1.224646799147353207E-16, -1.000000000000000000 ) ) ;
#61 = FACE_OUTER_BOUND ( 'NONE', #27, .T. ) ;
#62 = CARTESIAN_POINT ( 'NONE',  ( -6.413731847436034514E-31, 0.0000000000000000000, -1.836965810494968570E-16 ) ) ;
#63 = DIRECTION ( 'NONE',  ( 0.0000000000000000000, 1.000000000000000000, 0.0000000000000000000 ) ) ;
#64 = PERSON ( 'UNSPECIFIED', 'UNSPECIFIED', 'UNSPECIFIED', ('UNSPECIFIED'), ('UNSPECIFIED'), ('UNSPECIFIED') ) ;
#65 = COORDINATED_UNIVERSAL_TIME_OFFSET ( 1, 0, .AHEAD. ) ;
#66 = MANIFOLD_SOLID_BREP ( 'Corps-Déplacer/Copier1[2]', #79 ) ;
#67 = PERSON_AND_ORGANIZATION ( #64, #1 ) ;
#68 = LOCAL_TIME ( 10, 16, 11.00000000000000000, #110 ) ;
#69 =( LENGTH_UNIT ( ) NAMED_UNIT ( * ) SI_UNIT ( .MILLI., .METRE. ) );
#70 = VERTEX_POINT ( 'NONE', #22 ) ;
#71 = APPROVAL ( #196, 'UNSPECIFIED' ) ;
#72 = ORIENTED_EDGE ( 'NONE', *, *, #17, .T. ) ;
#73 = DIRECTION ( 'NONE',  ( -3.491481338843133355E-15, 1.224646799147353207E-16, -1.000000000000000000 ) ) ;
#74 = EDGE_LOOP ( 'NONE', ( #38 ) ) ;
#75 = AXIS2_PLACEMENT_3D ( 'NONE', #146, #216, #133 ) ;
#76 = ORIENTED_EDGE ( 'NONE', *, *, #98, .F. ) ;
#77 = CARTESIAN_POINT ( 'NONE',  ( 4.145429978967844765E-14, 2.999999999999992006, 11.87298334620740370 ) ) ;
#78 = DIRECTION ( 'NONE',  ( -4.344867323496230065E-31, -1.000000000000000000, -1.227517819005651059E-16 ) ) ;
#79 = CLOSED_SHELL ( 'NONE', ( #138, #143, #176 ) ) ;
#80 = AXIS2_PLACEMENT_3D ( 'NONE', #171, #122, #203 ) ;
#81 = FACE_BOUND ( 'NONE', #182, .T. ) ;
#82 = CYLINDRICAL_SURFACE ( 'NONE', #137, 2.999999999999993783 ) ;
#83 = CARTESIAN_POINT ( 'NONE',  ( 2.793185071074506053E-14, -9.820142552045206497E-16, 7.999999999999998224 ) ) ;
#84 = TOROIDAL_SURFACE ( 'NONE', #178, 10.00000000000000000, 8.000000000000000000 ) ;
#85 = PERSON_AND_ORGANIZATION_ROLE ( 'creator' ) ;
#86 = VERTEX_POINT ( 'NONE', #36 ) ;
#87 = ADVANCED_FACE ( 'NONE', ( #204, #81 ), #94, .T. ) ;
#88 = CARTESIAN_POINT ( 'NONE',  ( 0.0000000000000000000, 0.0000000000000000000, 0.0000000000000000000 ) ) ;
#89 = CIRCLE ( 'NONE', #75, 2.999999999999993783 ) ;
#90 = COORDINATED_UNIVERSAL_TIME_OFFSET ( 1, 0, .AHEAD. ) ;
#91 = PERSON_AND_ORGANIZATION ( #64, #1 ) ;
#92 = EDGE_LOOP ( 'NONE', ( #39 ) ) ;
#93 = APPROVAL_DATE_TIME ( #198, #71 ) ;
#94 = CONICAL_SURFACE ( 'NONE', #211, 2.399999999999996803, 0.7853981633974396193 ) ;
#95 = ORIENTED_EDGE ( 'NONE', *, *, #183, .T. ) ;
#96 = CC_DESIGN_APPROVAL ( #59, ( #54 ) ) ;
#97 =( GEOMETRIC_REPRESENTATION_CONTEXT ( 3 ) GLOBAL_UNCERTAINTY_ASSIGNED_CONTEXT ( ( #215 ) ) GLOBAL_UNIT_ASSIGNED_CONTEXT ( ( #69, #209, #158 ) ) REPRESENTATION_CONTEXT ( 'NONE', 'WORKASPACE' ) );
#98 = EDGE_CURVE ( 'NONE', #31, #31, #48, .T. ) ;
#99 = CARTESIAN_POINT ( 'NONE',  ( 1.990144363140586139E-13, 2.399999999999989697, 57.00000000000000000 ) ) ;
#100 = FACE_OUTER_BOUND ( 'NONE', #74, .T. ) ;
#101 = CARTESIAN_POINT ( 'NONE',  ( -1.714342223262260611E-30, -1.999999999999998668, -4.910071276022601276E-16 ) ) ;
#102 = PLANE ( 'NONE',  #112 ) ;
#103 = CC_DESIGN_PERSON_AND_ORGANIZATION_ASSIGNMENT ( #91, #50, ( #129 ) ) ;
#104 = PLANE ( 'NONE',  #58 ) ;
#105 = APPROVAL ( #208, 'UNSPECIFIED' ) ;
#106 = CALENDAR_DATE ( 2021, 1, 11 ) ;
#107 = AXIS2_PLACEMENT_3D ( 'NONE', #2, #222, #190 ) ;
#108 = DATE_AND_TIME ( #106, #28 ) ;
#109 = ORIENTED_EDGE ( 'NONE', *, *, #183, .F. ) ;
#110 = COORDINATED_UNIVERSAL_TIME_OFFSET ( 1, 0, .AHEAD. ) ;
#111 = CIRCLE ( 'NONE', #140, 2.399999999999996803 ) ;
#112 = AXIS2_PLACEMENT_3D ( 'NONE', #199, #170, #43 ) ;
#113 = EDGE_LOOP ( 'NONE', ( #130 ) ) ;
#114 = DESIGN_CONTEXT ( 'detailed design', #116, 'design' ) ;
#115 = CALENDAR_DATE ( 2021, 1, 11 ) ;
#116 = APPLICATION_CONTEXT ( 'configuration controlled 3d designs of mechanical parts and assemblies' ) ;
#117 = DIRECTION ( 'NONE',  ( 4.275831445896958607E-31, 1.000000000000000000, 1.224646799147353207E-16 ) ) ;
#118 = AXIS2_PLACEMENT_3D ( 'NONE', #62, #121, #19 ) ;
#119 = DIRECTION ( 'NONE',  ( 4.275831445896958607E-31, 1.000000000000000000, 1.224646799147353454E-16 ) ) ;
#120 = PLANE ( 'NONE',  #107 ) ;
#121 = DIRECTION ( 'NONE',  ( 3.491481338843133355E-15, -1.227517819005651059E-16, 1.000000000000000000 ) ) ;
#122 = DIRECTION ( 'NONE',  ( 3.491481338843133355E-15, -1.227517819005651059E-16, 1.000000000000000000 ) ) ;
#123 = PERSON_AND_ORGANIZATION ( #64, #1 ) ;
#124 = CC_DESIGN_DATE_AND_TIME_ASSIGNMENT ( #51, #126, ( #26 ) ) ;
#125 = APPROVAL_PERSON_ORGANIZATION ( #212, #59, #172 ) ;
#126 = DATE_TIME_ROLE ( 'classification_date' ) ;
#127 = APPROVAL_STATUS ( 'not_yet_approved' ) ;
#128 = PERSON_AND_ORGANIZATION ( #64, #1 ) ;
#129 = PRODUCT_DEFINITION_FORMATION_WITH_SPECIFIED_SOURCE ( 'ANY', '', #202, .NOT_KNOWN. ) ;
#130 = ORIENTED_EDGE ( 'NONE', *, *, #180, .F. ) ;
#131 = ADVANCED_FACE ( 'NONE', ( #153, #45 ), #82, .T. ) ;
#132 = DIRECTION ( 'NONE',  ( 0.0000000000000000000, 1.000000000000000000, 0.0000000000000000000 ) ) ;
#133 = DIRECTION ( 'NONE',  ( 0.0000000000000000000, 1.000000000000000000, 0.0000000000000000000 ) ) ;
#134 = CARTESIAN_POINT ( 'NONE',  ( 1.990144363140586139E-13, 1.799711739194216266E-32, 57.00000000000000000 ) ) ;
#135 = CYLINDRICAL_SURFACE ( 'NONE', #118, 1.999999999999998224 ) ;
#136 = PLANE ( 'NONE',  #15 ) ;
#137 = AXIS2_PLACEMENT_3D ( 'NONE', #221, #60, #119 ) ;
#138 = ADVANCED_FACE ( 'NONE', ( #100 ), #120, .T. ) ;
#139 = COORDINATED_UNIVERSAL_TIME_OFFSET ( 1, 0, .AHEAD. ) ;
#140 = AXIS2_PLACEMENT_3D ( 'NONE', #55, #73, #132 ) ;
#141 = MANIFOLD_SOLID_BREP ( 'Corps-Déplacer/Copier1[1]', #213 ) ;
#142 = DATE_TIME_ROLE ( 'creation_date' ) ;
#143 = ADVANCED_FACE ( 'NONE', ( #186, #47 ), #135, .T. ) ;
#144 = LOCAL_TIME ( 10, 16, 11.00000000000000000, #90 ) ;
#145 = ORIENTED_EDGE ( 'NONE', *, *, #219, .F. ) ;
#146 = CARTESIAN_POINT ( 'NONE',  ( 4.145429978967844765E-14, -2.210139082994979279E-15, 11.87298334620740370 ) ) ;
#147 = EDGE_LOOP ( 'NONE', ( #76 ) ) ;
#148 = CC_DESIGN_PERSON_AND_ORGANIZATION_ASSIGNMENT ( #123, #3, ( #26 ) ) ;
#149 = ORIENTED_EDGE ( 'NONE', *, *, #11, .T. ) ;
#150 = VERTEX_POINT ( 'NONE', #57 ) ;
#151 = ADVANCED_BREP_SHAPE_REPRESENTATION ( '41856', ( #141, #66, #168 ), #97 ) ;
#152 = CARTESIAN_POINT ( 'NONE',  ( 1.969195475107526960E-13, -6.907007947191071191E-15, 56.39999999999999147 ) ) ;
#153 = FACE_OUTER_BOUND ( 'NONE', #217, .T. ) ;
#154 = FACE_OUTER_BOUND ( 'NONE', #147, .T. ) ;
#155 = DIRECTION ( 'NONE',  ( 0.0000000000000000000, -1.000000000000000000, 0.0000000000000000000 ) ) ;
#156 = CC_DESIGN_APPROVAL ( #105, ( #129 ) ) ;
#157 = COORDINATED_UNIVERSAL_TIME_OFFSET ( 1, 0, .AHEAD. ) ;
#158 =( NAMED_UNIT ( * ) SI_UNIT ( $, .STERADIAN. ) SOLID_ANGLE_UNIT ( ) );
#159 = CC_DESIGN_SECURITY_CLASSIFICATION ( #26, ( #129 ) ) ;
#160 = APPROVAL_DATE_TIME ( #5, #59 ) ;
#161 = APPROVAL_PERSON_ORGANIZATION ( #128, #105, #195 ) ;
#162 = SHAPE_DEFINITION_REPRESENTATION ( #169, #151 ) ;
#163 = EDGE_LOOP ( 'NONE', ( #7 ) ) ;
#164 = PRODUCT_RELATED_PRODUCT_CATEGORY ( 'detail', '', ( #202 ) ) ;
#165 = AXIS2_PLACEMENT_3D ( 'NONE', #13, #185, #187 ) ;
#166 = VERTEX_POINT ( 'NONE', #77 ) ;
#167 = DIRECTION ( 'NONE',  ( -4.275831445896958607E-31, -1.000000000000000000, -1.224646799147353207E-16 ) ) ;
#168 = AXIS2_PLACEMENT_3D ( 'NONE', #88, #52, #193 ) ;
#169 = PRODUCT_DEFINITION_SHAPE ( 'NONE', 'NONE',  #54 ) ;
#170 = DIRECTION ( 'NONE',  ( 3.491481338843133355E-15, -1.224646799147353207E-16, 1.000000000000000000 ) ) ;
#171 = CARTESIAN_POINT ( 'NONE',  ( -8.571711116311303056E-31, 7.586917266660468979E-33, -2.455035638011300638E-16 ) ) ;
#172 = APPROVAL_ROLE ( '' ) ;
#173 = CIRCLE ( 'NONE', #206, 2.999999999999996447 ) ;
#174 = PERSON_AND_ORGANIZATION_ROLE ( 'creator' ) ;
#175 = PERSON_AND_ORGANIZATION ( #64, #1 ) ;
#176 = ADVANCED_FACE ( 'NONE', ( #154 ), #104, .F. ) ;
#177 = MECHANICAL_CONTEXT ( 'NONE', #189, 'mechanical' ) ;
#178 = AXIS2_PLACEMENT_3D ( 'NONE', #49, #220, #78 ) ;
#179 = APPROVAL_DATE_TIME ( #108, #105 ) ;
#180 = EDGE_CURVE ( 'NONE', #150, #150, #10, .T. ) ;
#181 = EDGE_LOOP ( 'NONE', ( #145 ) ) ;
#182 = EDGE_LOOP ( 'NONE', ( #149 ) ) ;
#183 = EDGE_CURVE ( 'NONE', #86, #86, #173, .T. ) ;
#184 = APPROVAL_PERSON_ORGANIZATION ( #175, #71, #41 ) ;
#185 = DIRECTION ( 'NONE',  ( 3.491481338843133355E-15, -1.227517819005651059E-16, 1.000000000000000000 ) ) ;
#186 = FACE_OUTER_BOUND ( 'NONE', #163, .T. ) ;
#187 = DIRECTION ( 'NONE',  ( 0.0000000000000000000, -1.000000000000000000, 0.0000000000000000000 ) ) ;
#188 = DIRECTION ( 'NONE',  ( 3.491481338843133355E-15, -1.224646799147353207E-16, 1.000000000000000000 ) ) ;
#189 = APPLICATION_CONTEXT ( 'configuration controlled 3d designs of mechanical parts and assemblies' ) ;
#190 = DIRECTION ( 'NONE',  ( -4.275831445896958607E-31, -1.000000000000000000, -1.224646799147353207E-16 ) ) ;
#191 = CC_DESIGN_PERSON_AND_ORGANIZATION_ASSIGNMENT ( #37, #174, ( #129 ) ) ;
#192 = CALENDAR_DATE ( 2021, 1, 11 ) ;
#193 = DIRECTION ( 'NONE',  ( 1.000000000000000000, 0.0000000000000000000, 0.0000000000000000000 ) ) ;
#194 = APPLICATION_PROTOCOL_DEFINITION ( 'international standard', 'config_control_design', 1994, #116 ) ;
#195 = APPROVAL_ROLE ( '' ) ;
#196 = APPROVAL_STATUS ( 'not_yet_approved' ) ;
#197 = ADVANCED_FACE ( 'NONE', ( #16 ), #102, .F. ) ;
#198 = DATE_AND_TIME ( #115, #68 ) ;
#199 = CARTESIAN_POINT ( 'NONE',  ( 2.793185071074506684E-14, 2.249639673992778475E-32, 8.000000000000000000 ) ) ;
#200 = CC_DESIGN_DATE_AND_TIME_ASSIGNMENT ( #4, #142, ( #54 ) ) ;
#201 = DIRECTION ( 'NONE',  ( 0.0000000000000000000, 1.000000000000000000, 0.0000000000000000000 ) ) ;
#202 = PRODUCT ( '41856', '41856', '', ( #177 ) ) ;
#203 = DIRECTION ( 'NONE',  ( -4.285855558155654155E-31, -1.000000000000000000, -1.227517819005651059E-16 ) ) ;
#204 = FACE_OUTER_BOUND ( 'NONE', #8, .T. ) ;
#205 = FACE_OUTER_BOUND ( 'NONE', #218, .T. ) ;
#206 = AXIS2_PLACEMENT_3D ( 'NONE', #152, #32, #63 ) ;
#207 = ADVANCED_FACE ( 'NONE', ( #223 ), #136, .F. ) ;
#208 = APPROVAL_STATUS ( 'not_yet_approved' ) ;
#209 =( NAMED_UNIT ( * ) PLANE_ANGLE_UNIT ( ) SI_UNIT ( $, .RADIAN. ) );
#210 = CALENDAR_DATE ( 2021, 1, 11 ) ;
#211 = AXIS2_PLACEMENT_3D ( 'NONE', #33, #18, #201 ) ;
#212 = PERSON_AND_ORGANIZATION ( #64, #1 ) ;
#213 = CLOSED_SHELL ( 'NONE', ( #131, #87, #207, #24, #197 ) ) ;
#214 = AXIS2_PLACEMENT_3D ( 'NONE', #83, #14, #155 ) ;
#215 = UNCERTAINTY_MEASURE_WITH_UNIT (LENGTH_MEASURE( 1.000000000000000082E-05 ), #69, 'distance_accuracy_value', 'NONE');
#216 = DIRECTION ( 'NONE',  ( -3.491481338843133355E-15, 1.227517819005651059E-16, -1.000000000000000000 ) ) ;
#217 = EDGE_LOOP ( 'NONE', ( #95 ) ) ;
#218 = EDGE_LOOP ( 'NONE', ( #9 ) ) ;
#219 = EDGE_CURVE ( 'NONE', #70, #70, #34, .T. ) ;
#220 = DIRECTION ( 'NONE',  ( 3.491481338843133355E-15, -1.227517819005651059E-16, 1.000000000000000000 ) ) ;
#221 = CARTESIAN_POINT ( 'NONE',  ( 0.0000000000000000000, 0.0000000000000000000, 0.0000000000000000000 ) ) ;
#222 = DIRECTION ( 'NONE',  ( 3.491481338843133355E-15, -1.224646799147353207E-16, 1.000000000000000000 ) ) ;
#223 = FACE_OUTER_BOUND ( 'NONE', #12, .T. ) ;
ENDSEC;
END-ISO-10303-21;
