ISO-10303-21;
HEADER;
FILE_DESCRIPTION (( 'STEP AP203' ),
    '1' );
FILE_NAME ('41855.step',
    '2021-11-01T10:35:10',
    ( '' ),
    ( '' ),
    'SwSTEP 2.0',
    'SolidWorks 2019',
    '' );
FILE_SCHEMA (( 'CONFIG_CONTROL_DESIGN' ));
ENDSEC;

DATA;
#1 = AXIS2_PLACEMENT_3D ( 'NONE', #204, #155, #97 ) ;
#2 = DIRECTION ( 'NONE',  ( 3.491481338843133355E-15, -1.227517819005651059E-16, 1.000000000000000000 ) ) ;
#3 = PERSON_AND_ORGANIZATION ( #85, #163 ) ;
#4 = CC_DESIGN_PERSON_AND_ORGANIZATION_ASSIGNMENT ( #3, #20, ( #116 ) ) ;
#5 = AXIS2_PLACEMENT_3D ( 'NONE', #135, #205, #48 ) ;
#6 = APPROVAL_DATE_TIME ( #175, #202 ) ;
#7 = COORDINATED_UNIVERSAL_TIME_OFFSET ( 1, 0, .AHEAD. ) ;
#8 = PERSON_AND_ORGANIZATION ( #85, #163 ) ;
#9 = APPROVAL_ROLE ( '' ) ;
#10 = EDGE_LOOP ( 'NONE', ( #79 ) ) ;
#11 = CC_DESIGN_DATE_AND_TIME_ASSIGNMENT ( #123, #72, ( #200 ) ) ;
#12 = ORIENTED_EDGE ( 'NONE', *, *, #96, .T. ) ;
#13 = CARTESIAN_POINT ( 'NONE',  ( 2.444036937190193033E-14, 2.249639673992780117E-32, 6.999999999999999112 ) ) ;
#14 = FACE_OUTER_BOUND ( 'NONE', #94, .T. ) ;
#15 = DIRECTION ( 'NONE',  ( -4.285855558155653280E-31, -1.000000000000000000, -1.227517819005651059E-16 ) ) ;
#16 = DESIGN_CONTEXT ( 'detailed design', #38, 'design' ) ;
#17 = CARTESIAN_POINT ( 'NONE',  ( 2.444036937190193033E-14, -8.592624733039555931E-16, 6.999999999999999112 ) ) ;
#18 = CIRCLE ( 'NONE', #95, 2.999999999999996003 ) ;
#19 = CYLINDRICAL_SURFACE ( 'NONE', #144, 1.499999999999998668 ) ;
#20 = PERSON_AND_ORGANIZATION_ROLE ( 'design_supplier' ) ;
#21 = EDGE_CURVE ( 'NONE', #122, #122, #90, .T. ) ;
#22 = LOCAL_TIME ( 11, 35, 10.00000000000000000, #7 ) ;
#23 = DATE_AND_TIME ( #58, #220 ) ;
#24 =( NAMED_UNIT ( * ) SI_UNIT ( $, .STERADIAN. ) SOLID_ANGLE_UNIT ( ) );
#25 = CIRCLE ( 'NONE', #194, 1.499999999999998668 ) ;
#26 = APPROVAL_STATUS ( 'not_yet_approved' ) ;
#27 = DIRECTION ( 'NONE',  ( 0.0000000000000000000, -1.000000000000000000, 0.0000000000000000000 ) ) ;
#28 = ADVANCED_FACE ( 'NONE', ( #184 ), #115, .F. ) ;
#29 = DIRECTION ( 'NONE',  ( -4.285855558155653280E-31, -1.000000000000000000, -1.227517819005651305E-16 ) ) ;
#30 = CIRCLE ( 'NONE', #104, 1.499999999999998668 ) ;
#31 = FACE_OUTER_BOUND ( 'NONE', #41, .T. ) ;
#32 = DIRECTION ( 'NONE',  ( 0.0000000000000000000, 1.000000000000000000, 0.0000000000000000000 ) ) ;
#33 = CARTESIAN_POINT ( 'NONE',  ( 1.990144363140586139E-13, 1.949687717460403943E-32, 57.00000000000000000 ) ) ;
#34 =( GEOMETRIC_REPRESENTATION_CONTEXT ( 3 ) GLOBAL_UNCERTAINTY_ASSIGNED_CONTEXT ( ( #133 ) ) GLOBAL_UNIT_ASSIGNED_CONTEXT ( ( #185, #210, #24 ) ) REPRESENTATION_CONTEXT ( 'NONE', 'WORKASPACE' ) );
#35 = VERTEX_POINT ( 'NONE', #188 ) ;
#36 = APPROVAL_DATE_TIME ( #176, #152 ) ;
#37 = AXIS2_PLACEMENT_3D ( 'NONE', #33, #84, #167 ) ;
#38 = APPLICATION_CONTEXT ( 'configuration controlled 3d designs of mechanical parts and assemblies' ) ;
#39 = AXIS2_PLACEMENT_3D ( 'NONE', #118, #117, #32 ) ;
#40 = CC_DESIGN_PERSON_AND_ORGANIZATION_ASSIGNMENT ( #139, #143, ( #116 ) ) ;
#41 = EDGE_LOOP ( 'NONE', ( #196 ) ) ;
#42 = ORIENTED_EDGE ( 'NONE', *, *, #142, .F. ) ;
#43 = LOCAL_TIME ( 11, 35, 10.00000000000000000, #149 ) ;
#44 = EDGE_LOOP ( 'NONE', ( #193 ) ) ;
#45 = DIRECTION ( 'NONE',  ( 3.491481338843133355E-15, -1.227517819005651059E-16, 1.000000000000000000 ) ) ;
#46 = DIRECTION ( 'NONE',  ( 0.0000000000000000000, 1.000000000000000000, 0.0000000000000000000 ) ) ;
#47 = CARTESIAN_POINT ( 'NONE',  ( -6.428783337233475540E-31, 5.291728677852027853E-35, -1.841276728508475355E-16 ) ) ;
#48 = DIRECTION ( 'NONE',  ( 4.275831445896959482E-31, 1.000000000000000000, 1.224646799147353207E-16 ) ) ;
#49 = CARTESIAN_POINT ( 'NONE',  ( 4.072355432398988773E-14, -5.724761996143284471E-16, 11.66368952654440250 ) ) ;
#50 = CIRCLE ( 'NONE', #120, 2.999999999999999112 ) ;
#51 = APPROVAL_PERSON_ORGANIZATION ( #121, #152, #52 ) ;
#52 = APPROVAL_ROLE ( '' ) ;
#53 = PRODUCT_DEFINITION ( 'UNKNOWN', '', #116, #16 ) ;
#54 = SECURITY_CLASSIFICATION_LEVEL ( 'unclassified' ) ;
#55 = LOCAL_TIME ( 11, 35, 10.00000000000000000, #56 ) ;
#56 = COORDINATED_UNIVERSAL_TIME_OFFSET ( 1, 0, .AHEAD. ) ;
#57 = ADVANCED_FACE ( 'NONE', ( #137, #183 ), #214, .F. ) ;
#58 = CALENDAR_DATE ( 2021, 1, 11 ) ;
#59 = DIRECTION ( 'NONE',  ( 0.0000000000000000000, 0.0000000000000000000, 1.000000000000000000 ) ) ;
#60 = CALENDAR_DATE ( 2021, 1, 11 ) ;
#61 = ORIENTED_EDGE ( 'NONE', *, *, #178, .F. ) ;
#62 = PERSON_AND_ORGANIZATION_ROLE ( 'design_owner' ) ;
#63 = CC_DESIGN_APPROVAL ( #197, ( #53 ) ) ;
#64 = DIRECTION ( 'NONE',  ( 0.0000000000000000000, -1.000000000000000000, 0.0000000000000000000 ) ) ;
#65 = CARTESIAN_POINT ( 'NONE',  ( 1.990144363140586139E-13, -6.980486755139912911E-15, 57.00000000000000000 ) ) ;
#66 = AXIS2_PLACEMENT_3D ( 'NONE', #103, #168, #131 ) ;
#67 = FACE_BOUND ( 'NONE', #199, .T. ) ;
#68 = CC_DESIGN_PERSON_AND_ORGANIZATION_ASSIGNMENT ( #91, #62, ( #112 ) ) ;
#69 = DIRECTION ( 'NONE',  ( -3.491481338843133355E-15, 1.224646799147353207E-16, -1.000000000000000000 ) ) ;
#70 = PERSON_AND_ORGANIZATION ( #85, #163 ) ;
#71 = AXIS2_PLACEMENT_3D ( 'NONE', #17, #86, #64 ) ;
#72 = DATE_TIME_ROLE ( 'classification_date' ) ;
#73 = APPLICATION_CONTEXT ( 'configuration controlled 3d designs of mechanical parts and assemblies' ) ;
#74 = AXIS2_PLACEMENT_3D ( 'NONE', #147, #59, #217 ) ;
#75 = APPROVAL_STATUS ( 'not_yet_approved' ) ;
#76 = CC_DESIGN_PERSON_AND_ORGANIZATION_ASSIGNMENT ( #70, #106, ( #53 ) ) ;
#77 = EDGE_CURVE ( 'NONE', #125, #125, #50, .T. ) ;
#78 = ORIENTED_EDGE ( 'NONE', *, *, #96, .F. ) ;
#79 = ORIENTED_EDGE ( 'NONE', *, *, #142, .T. ) ;
#80 = ADVANCED_FACE ( 'NONE', ( #81 ), #223, .F. ) ;
#81 = FACE_OUTER_BOUND ( 'NONE', #198, .T. ) ;
#82 = FACE_OUTER_BOUND ( 'NONE', #164, .T. ) ;
#83 = PRODUCT_RELATED_PRODUCT_CATEGORY ( 'detail', '', ( #112 ) ) ;
#84 = DIRECTION ( 'NONE',  ( -3.491481338843133355E-15, 1.224646799147353207E-16, -1.000000000000000000 ) ) ;
#85 = PERSON ( 'UNSPECIFIED', 'UNSPECIFIED', 'UNSPECIFIED', ('UNSPECIFIED'), ('UNSPECIFIED'), ('UNSPECIFIED') ) ;
#86 = DIRECTION ( 'NONE',  ( 3.491481338843133355E-15, -1.227517819005651059E-16, 1.000000000000000000 ) ) ;
#87 = APPROVAL_PERSON_ORGANIZATION ( #192, #197, #9 ) ;
#88 = DIRECTION ( 'NONE',  ( -3.491481338843133355E-15, 1.224646799147353207E-16, -1.000000000000000000 ) ) ;
#89 = SHAPE_DEFINITION_REPRESENTATION ( #195, #93 ) ;
#90 = CIRCLE ( 'NONE', #71, 1.499999999999998668 ) ;
#91 = PERSON_AND_ORGANIZATION ( #85, #163 ) ;
#92 = EDGE_LOOP ( 'NONE', ( #221 ) ) ;
#93 = ADVANCED_BREP_SHAPE_REPRESENTATION ( '41855', ( #138, #212, #74 ), #34 ) ;
#94 = EDGE_LOOP ( 'NONE', ( #78 ) ) ;
#95 = AXIS2_PLACEMENT_3D ( 'NONE', #49, #101, #119 ) ;
#96 = EDGE_CURVE ( 'NONE', #174, #174, #207, .T. ) ;
#97 = DIRECTION ( 'NONE',  ( -4.275831445896958607E-31, -1.000000000000000000, -1.224646799147353207E-16 ) ) ;
#98 = CARTESIAN_POINT ( 'NONE',  ( 2.444036937190193033E-14, -8.592624733039555931E-16, 6.999999999999999112 ) ) ;
#99 = AXIS2_PLACEMENT_3D ( 'NONE', #157, #132, #203 ) ;
#100 = EDGE_CURVE ( 'NONE', #35, #35, #30, .T. ) ;
#101 = DIRECTION ( 'NONE',  ( -3.491481338843133355E-15, 1.227517819005651059E-16, -1.000000000000000000 ) ) ;
#102 = DIRECTION ( 'NONE',  ( 3.491481338843133355E-15, -1.227517819005651059E-16, 1.000000000000000000 ) ) ;
#103 = CARTESIAN_POINT ( 'NONE',  ( 2.444036937190193033E-14, 2.249639673992780117E-32, 6.999999999999999112 ) ) ;
#104 = AXIS2_PLACEMENT_3D ( 'NONE', #47, #2, #15 ) ;
#105 = PERSON_AND_ORGANIZATION_ROLE ( 'classification_officer' ) ;
#106 = PERSON_AND_ORGANIZATION_ROLE ( 'creator' ) ;
#107 = CLOSED_SHELL ( 'NONE', ( #179, #136, #148, #57, #80 ) ) ;
#108 = ORIENTED_EDGE ( 'NONE', *, *, #21, .F. ) ;
#109 = EDGE_LOOP ( 'NONE', ( #111 ) ) ;
#110 = APPLICATION_PROTOCOL_DEFINITION ( 'international standard', 'config_control_design', 1994, #38 ) ;
#111 = ORIENTED_EDGE ( 'NONE', *, *, #21, .T. ) ;
#112 = PRODUCT ( '41855', '41855', '', ( #129 ) ) ;
#113 = ORIENTED_EDGE ( 'NONE', *, *, #100, .T. ) ;
#114 = FACE_OUTER_BOUND ( 'NONE', #44, .T. ) ;
#115 = PLANE ( 'NONE',  #1 ) ;
#116 = PRODUCT_DEFINITION_FORMATION_WITH_SPECIFIED_SOURCE ( 'ANY', '', #112, .NOT_KNOWN. ) ;
#117 = DIRECTION ( 'NONE',  ( -3.491481338843133355E-15, 1.224646799147353207E-16, -1.000000000000000000 ) ) ;
#118 = CARTESIAN_POINT ( 'NONE',  ( 1.990144363140586139E-13, -6.980486755139912911E-15, 57.00000000000000000 ) ) ;
#119 = DIRECTION ( 'NONE',  ( 0.0000000000000000000, 1.000000000000000000, 0.0000000000000000000 ) ) ;
#120 = AXIS2_PLACEMENT_3D ( 'NONE', #206, #69, #46 ) ;
#121 = PERSON_AND_ORGANIZATION ( #85, #163 ) ;
#122 = VERTEX_POINT ( 'NONE', #161 ) ;
#123 = DATE_AND_TIME ( #216, #154 ) ;
#124 = AXIS2_PLACEMENT_3D ( 'NONE', #65, #88, #153 ) ;
#125 = VERTEX_POINT ( 'NONE', #145 ) ;
#126 = CALENDAR_DATE ( 2021, 1, 11 ) ;
#127 = CALENDAR_DATE ( 2021, 1, 11 ) ;
#128 = APPLICATION_PROTOCOL_DEFINITION ( 'international standard', 'config_control_design', 1994, #73 ) ;
#129 = MECHANICAL_CONTEXT ( 'NONE', #73, 'mechanical' ) ;
#130 = CONICAL_SURFACE ( 'NONE', #39, 2.599999999999999201, 0.7853981633974602694 ) ;
#131 = DIRECTION ( 'NONE',  ( -4.275831445896958607E-31, -1.000000000000000000, -1.224646799147353207E-16 ) ) ;
#132 = DIRECTION ( 'NONE',  ( 3.491481338843133355E-15, -1.227517819005651059E-16, 1.000000000000000000 ) ) ;
#133 = UNCERTAINTY_MEASURE_WITH_UNIT (LENGTH_MEASURE( 1.000000000000000082E-05 ), #185, 'distance_accuracy_value', 'NONE');
#134 = PLANE ( 'NONE',  #177 ) ;
#135 = CARTESIAN_POINT ( 'NONE',  ( 0.0000000000000000000, 0.0000000000000000000, 0.0000000000000000000 ) ) ;
#136 = ADVANCED_FACE ( 'NONE', ( #31, #67 ), #130, .T. ) ;
#137 = FACE_OUTER_BOUND ( 'NONE', #150, .T. ) ;
#138 = MANIFOLD_SOLID_BREP ( 'Corps-Déplacer/Copier1[1]', #107 ) ;
#139 = PERSON_AND_ORGANIZATION ( #85, #163 ) ;
#140 = CLOSED_SHELL ( 'NONE', ( #211, #218, #28 ) ) ;
#141 = CARTESIAN_POINT ( 'NONE',  ( 2.444036937190193033E-14, -1.499999999999999556, 6.999999999999999112 ) ) ;
#142 = EDGE_CURVE ( 'NONE', #180, #180, #18, .T. ) ;
#143 = PERSON_AND_ORGANIZATION_ROLE ( 'creator' ) ;
#144 = AXIS2_PLACEMENT_3D ( 'NONE', #158, #45, #29 ) ;
#145 = CARTESIAN_POINT ( 'NONE',  ( 1.976178437785213858E-13, 2.999999999999992450, 56.60000000000000853 ) ) ;
#146 = COORDINATED_UNIVERSAL_TIME_OFFSET ( 1, 0, .AHEAD. ) ;
#147 = CARTESIAN_POINT ( 'NONE',  ( 0.0000000000000000000, 0.0000000000000000000, 0.0000000000000000000 ) ) ;
#148 = ADVANCED_FACE ( 'NONE', ( #14 ), #170, .F. ) ;
#149 = COORDINATED_UNIVERSAL_TIME_OFFSET ( 1, 0, .AHEAD. ) ;
#150 = EDGE_LOOP ( 'NONE', ( #222 ) ) ;
#151 = CC_DESIGN_SECURITY_CLASSIFICATION ( #200, ( #116 ) ) ;
#152 = APPROVAL ( #190, 'UNSPECIFIED' ) ;
#153 = DIRECTION ( 'NONE',  ( 0.0000000000000000000, 1.000000000000000000, 0.0000000000000000000 ) ) ;
#154 = LOCAL_TIME ( 11, 35, 10.00000000000000000, #146 ) ;
#155 = DIRECTION ( 'NONE',  ( 3.491481338843133355E-15, -1.224646799147353207E-16, 1.000000000000000000 ) ) ;
#156 = CYLINDRICAL_SURFACE ( 'NONE', #5, 2.999999999999996003 ) ;
#157 = CARTESIAN_POINT ( 'NONE',  ( 2.444036937190192718E-14, 0.0000000000000000000, 6.999999999999998224 ) ) ;
#158 = CARTESIAN_POINT ( 'NONE',  ( -6.413731847436034514E-31, 0.0000000000000000000, -1.836965810494968570E-16 ) ) ;
#159 = DATE_TIME_ROLE ( 'creation_date' ) ;
#160 = CC_DESIGN_DATE_AND_TIME_ASSIGNMENT ( #23, #159, ( #53 ) ) ;
#161 = CARTESIAN_POINT ( 'NONE',  ( 2.444036937190193033E-14, -1.499999999999999556, 6.999999999999999112 ) ) ;
#162 = PERSON_AND_ORGANIZATION ( #85, #163 ) ;
#163 = ORGANIZATION ( 'UNSPECIFIED', 'UNSPECIFIED', '' ) ;
#164 = EDGE_LOOP ( 'NONE', ( #108 ) ) ;
#165 = CC_DESIGN_APPROVAL ( #152, ( #200 ) ) ;
#166 = CC_DESIGN_PERSON_AND_ORGANIZATION_ASSIGNMENT ( #8, #105, ( #200 ) ) ;
#167 = DIRECTION ( 'NONE',  ( 4.275831445896958607E-31, 1.000000000000000000, 1.224646799147353207E-16 ) ) ;
#168 = DIRECTION ( 'NONE',  ( 3.491481338843133355E-15, -1.224646799147353207E-16, 1.000000000000000000 ) ) ;
#169 = CARTESIAN_POINT ( 'NONE',  ( 4.072355432398988773E-14, 2.999999999999995559, 11.66368952654440250 ) ) ;
#170 = PLANE ( 'NONE',  #37 ) ;
#171 = FACE_OUTER_BOUND ( 'NONE', #109, .T. ) ;
#172 = FACE_OUTER_BOUND ( 'NONE', #181, .T. ) ;
#173 = APPROVAL_PERSON_ORGANIZATION ( #162, #202, #213 ) ;
#174 = VERTEX_POINT ( 'NONE', #215 ) ;
#175 = DATE_AND_TIME ( #127, #55 ) ;
#176 = DATE_AND_TIME ( #126, #22 ) ;
#177 = AXIS2_PLACEMENT_3D ( 'NONE', #13, #186, #182 ) ;
#178 = EDGE_CURVE ( 'NONE', #191, #191, #25, .T. ) ;
#179 = ADVANCED_FACE ( 'NONE', ( #114, #201 ), #156, .T. ) ;
#180 = VERTEX_POINT ( 'NONE', #169 ) ;
#181 = EDGE_LOOP ( 'NONE', ( #113 ) ) ;
#182 = DIRECTION ( 'NONE',  ( -4.275831445896958607E-31, -1.000000000000000000, -1.224646799147353207E-16 ) ) ;
#183 = FACE_OUTER_BOUND ( 'NONE', #10, .T. ) ;
#184 = FACE_OUTER_BOUND ( 'NONE', #92, .T. ) ;
#185 =( LENGTH_UNIT ( ) NAMED_UNIT ( * ) SI_UNIT ( .MILLI., .METRE. ) );
#186 = DIRECTION ( 'NONE',  ( 3.491481338843133355E-15, -1.224646799147353207E-16, 1.000000000000000000 ) ) ;
#187 = CC_DESIGN_APPROVAL ( #202, ( #116 ) ) ;
#188 = CARTESIAN_POINT ( 'NONE',  ( -1.285756667446694933E-30, -1.499999999999998668, -3.682553457016950218E-16 ) ) ;
#189 = DATE_AND_TIME ( #60, #43 ) ;
#190 = APPROVAL_STATUS ( 'not_yet_approved' ) ;
#191 = VERTEX_POINT ( 'NONE', #141 ) ;
#192 = PERSON_AND_ORGANIZATION ( #85, #163 ) ;
#193 = ORIENTED_EDGE ( 'NONE', *, *, #77, .T. ) ;
#194 = AXIS2_PLACEMENT_3D ( 'NONE', #98, #102, #27 ) ;
#195 = PRODUCT_DEFINITION_SHAPE ( 'NONE', 'NONE',  #53 ) ;
#196 = ORIENTED_EDGE ( 'NONE', *, *, #77, .F. ) ;
#197 = APPROVAL ( #26, 'UNSPECIFIED' ) ;
#198 = EDGE_LOOP ( 'NONE', ( #61 ) ) ;
#199 = EDGE_LOOP ( 'NONE', ( #12 ) ) ;
#200 = SECURITY_CLASSIFICATION ( '', '', #54 ) ;
#201 = FACE_OUTER_BOUND ( 'NONE', #219, .T. ) ;
#202 = APPROVAL ( #75, 'UNSPECIFIED' ) ;
#203 = DIRECTION ( 'NONE',  ( -4.346553373934532134E-31, -1.000000000000000000, -1.227517819005651059E-16 ) ) ;
#204 = CARTESIAN_POINT ( 'NONE',  ( -8.551623707117318460E-31, 2.999505821189316650E-32, -2.449282375357277963E-16 ) ) ;
#205 = DIRECTION ( 'NONE',  ( -3.491481338843133355E-15, 1.224646799147353207E-16, -1.000000000000000000 ) ) ;
#206 = CARTESIAN_POINT ( 'NONE',  ( 1.976178437785213858E-13, -6.931500883174021061E-15, 56.60000000000000853 ) ) ;
#207 = CIRCLE ( 'NONE', #124, 2.599999999999999201 ) ;
#208 = COORDINATED_UNIVERSAL_TIME_OFFSET ( 1, 0, .AHEAD. ) ;
#209 = APPROVAL_DATE_TIME ( #189, #197 ) ;
#210 =( NAMED_UNIT ( * ) PLANE_ANGLE_UNIT ( ) SI_UNIT ( $, .RADIAN. ) );
#211 = ADVANCED_FACE ( 'NONE', ( #171 ), #134, .T. ) ;
#212 = MANIFOLD_SOLID_BREP ( 'Corps-Déplacer/Copier1[2]', #140 ) ;
#213 = APPROVAL_ROLE ( '' ) ;
#214 = TOROIDAL_SURFACE ( 'NONE', #99, 9.499999999999998224, 8.000000000000000000 ) ;
#215 = CARTESIAN_POINT ( 'NONE',  ( 1.990144363140586139E-13, 2.599999999999992095, 57.00000000000000000 ) ) ;
#216 = CALENDAR_DATE ( 2021, 1, 11 ) ;
#217 = DIRECTION ( 'NONE',  ( 1.000000000000000000, 0.0000000000000000000, 0.0000000000000000000 ) ) ;
#218 = ADVANCED_FACE ( 'NONE', ( #172, #82 ), #19, .T. ) ;
#219 = EDGE_LOOP ( 'NONE', ( #42 ) ) ;
#220 = LOCAL_TIME ( 11, 35, 10.00000000000000000, #208 ) ;
#221 = ORIENTED_EDGE ( 'NONE', *, *, #100, .F. ) ;
#222 = ORIENTED_EDGE ( 'NONE', *, *, #178, .T. ) ;
#223 = PLANE ( 'NONE',  #66 ) ;
ENDSEC;
END-ISO-10303-21;
