ISO-10303-21;
HEADER;
FILE_DESCRIPTION (( 'STEP AP203' ),
    '1' );
FILE_NAME ('41840.step',
    '2021-09-03T07:22:17',
    ( '' ),
    ( '' ),
    'SwSTEP 2.0',
    'SolidWorks 2019',
    '' );
FILE_SCHEMA (( 'CONFIG_CONTROL_DESIGN' ));
ENDSEC;

DATA;
#1 = CYLINDRICAL_SURFACE ( 'NONE', #265, 1.499999999999992450 ) ;
#2 = CARTESIAN_POINT ( 'NONE',  ( 4.189777606611760026E-14, -1.469576158976823947E-15, 12.00000000000000000 ) ) ;
#3 = CIRCLE ( 'NONE', #123, 1.499999999999997113 ) ;
#4 = EDGE_CURVE ( 'NONE', #141, #138, #57, .T. ) ;
#5 = CARTESIAN_POINT ( 'NONE',  ( 4.189777606611760026E-14, 1.499999999999991562, 12.00000000000000000 ) ) ;
#6 = CARTESIAN_POINT ( 'NONE',  ( 4.189777606611760026E-14, 1.124819836996385816E-32, 12.00000000000000000 ) ) ;
#7 = ORIENTED_EDGE ( 'NONE', *, *, #200, .F. ) ;
#8 = VECTOR ( 'NONE', #261, 1000.000000000000000 ) ;
#9 = FACE_OUTER_BOUND ( 'NONE', #158, .T. ) ;
#10 = PERSON ( 'UNSPECIFIED', 'UNSPECIFIED', 'UNSPECIFIED', ('UNSPECIFIED'), ('UNSPECIFIED'), ('UNSPECIFIED') ) ;
#11 = DATE_AND_TIME ( #135, #28 ) ;
#12 = CARTESIAN_POINT ( 'NONE',  ( 1.595606971851311880E-13, -5.596635872103403844E-15, 45.69999999999999574 ) ) ;
#13 = PRODUCT_DEFINITION_SHAPE ( 'NONE', 'NONE',  #243 ) ;
#14 = AXIS2_PLACEMENT_3D ( 'NONE', #195, #65, #170 ) ;
#15 = SECURITY_CLASSIFICATION_LEVEL ( 'unclassified' ) ;
#16 = ORIENTED_EDGE ( 'NONE', *, *, #125, .T. ) ;
#17 = EDGE_CURVE ( 'NONE', #40, #138, #78, .T. ) ;
#18 = ORIENTED_EDGE ( 'NONE', *, *, #84, .T. ) ;
#19 = DIRECTION ( 'NONE',  ( 0.0000000000000000000, 1.000000000000000000, 0.0000000000000000000 ) ) ;
#20 = CIRCLE ( 'NONE', #285, 1.499999999999993117 ) ;
#21 = APPROVAL_PERSON_ORGANIZATION ( #295, #155, #62 ) ;
#22 = ORIENTED_EDGE ( 'NONE', *, *, #17, .T. ) ;
#23 = ORIENTED_EDGE ( 'NONE', *, *, #4, .F. ) ;
#24 = AXIS2_PLACEMENT_3D ( 'NONE', #315, #129, #235 ) ;
#25 = LINE ( 'NONE', #313, #320 ) ;
#26 = ADVANCED_FACE ( 'NONE', ( #202 ), #240, .T. ) ;
#27 = CARTESIAN_POINT ( 'NONE',  ( 4.189777606611760026E-14, -1.469576158976823947E-15, 12.00000000000000000 ) ) ;
#28 = LOCAL_TIME ( 9, 22, 17.00000000000000000, #186 ) ;
#29 = DIRECTION ( 'NONE',  ( -3.491481338843133355E-15, 1.224646799147353207E-16, -1.000000000000000000 ) ) ;
#30 = DIRECTION ( 'NONE',  ( 4.275831445896958607E-31, 1.000000000000000000, 1.224646799147353207E-16 ) ) ;
#31 = EDGE_CURVE ( 'NONE', #49, #141, #3, .T. ) ;
#32 = DATE_AND_TIME ( #203, #228 ) ;
#33 = PLANE ( 'NONE',  #24 ) ;
#34 = CARTESIAN_POINT ( 'NONE',  ( 1.606081415867841091E-13, 1.199999999999991962, 46.00000000000000000 ) ) ;
#35 = PERSON_AND_ORGANIZATION ( #10, #102 ) ;
#36 = DIRECTION ( 'NONE',  ( -3.491481338843133355E-15, 1.224646799147353207E-16, -1.000000000000000000 ) ) ;
#37 = ORIENTED_EDGE ( 'NONE', *, *, #43, .T. ) ;
#38 = CARTESIAN_POINT ( 'NONE',  ( 0.0000000000000000000, 0.0000000000000000000, 0.0000000000000000000 ) ) ;
#39 = CARTESIAN_POINT ( 'NONE',  ( 3.146840457870708605E-15, -1.103763050738704937E-16, 0.9012909285413457372 ) ) ;
#40 = VERTEX_POINT ( 'NONE', #292 ) ;
#41 = VECTOR ( 'NONE', #119, 1000.000000000000000 ) ;
#42 = CLOSED_SHELL ( 'NONE', ( #309, #190, #225, #26, #131, #305 ) ) ;
#43 = EDGE_CURVE ( 'NONE', #150, #162, #67, .T. ) ;
#44 = DIRECTION ( 'NONE',  ( 0.0000000000000000000, 0.0000000000000000000, 1.000000000000000000 ) ) ;
#45 = LINE ( 'NONE', #146, #180 ) ;
#46 = DIRECTION ( 'NONE',  ( 3.491481338843133355E-15, -1.224646799147353207E-16, 1.000000000000000000 ) ) ;
#47 = UNCERTAINTY_MEASURE_WITH_UNIT (LENGTH_MEASURE( 1.000000000000000082E-05 ), #219, 'distance_accuracy_value', 'NONE');
#48 = DIRECTION ( 'NONE',  ( -3.491481338843133355E-15, 1.224646799147353207E-16, -1.000000000000000000 ) ) ;
#49 = VERTEX_POINT ( 'NONE', #236 ) ;
#50 = EDGE_LOOP ( 'NONE', ( #80, #86, #72, #264 ) ) ;
#51 = CONICAL_SURFACE ( 'NONE', #281, 1.199999999999997513, 0.7853981633974450594 ) ;
#52 = ADVANCED_FACE ( 'NONE', ( #9 ), #210, .T. ) ;
#53 = DIRECTION ( 'NONE',  ( -3.491481338843133355E-15, 1.224646799147353207E-16, -1.000000000000000000 ) ) ;
#54 = VERTEX_POINT ( 'NONE', #71 ) ;
#55 = CARTESIAN_POINT ( 'NONE',  ( 0.0000000000000000000, 0.0000000000000000000, 0.0000000000000000000 ) ) ;
#56 = AXIS2_PLACEMENT_3D ( 'NONE', #27, #173, #148 ) ;
#57 = LINE ( 'NONE', #312, #109 ) ;
#58 = FACE_OUTER_BOUND ( 'NONE', #234, .T. ) ;
#59 = CARTESIAN_POINT ( 'NONE',  ( 4.189777606611760026E-14, -1.469576158976823947E-15, 12.00000000000000000 ) ) ;
#60 = ORIENTED_EDGE ( 'NONE', *, *, #105, .T. ) ;
#61 = ORIENTED_EDGE ( 'NONE', *, *, #316, .T. ) ;
#62 = APPROVAL_ROLE ( '' ) ;
#63 = PERSON_AND_ORGANIZATION_ROLE ( 'creator' ) ;
#64 = DESIGN_CONTEXT ( 'detailed design', #107, 'design' ) ;
#65 = DIRECTION ( 'NONE',  ( -3.491481338843133355E-15, 1.224646799147353207E-16, -1.000000000000000000 ) ) ;
#66 = ADVANCED_FACE ( 'NONE', ( #267 ), #263, .T. ) ;
#67 = CIRCLE ( 'NONE', #325, 1.499999999999991784 ) ;
#68 = SECURITY_CLASSIFICATION ( '', '', #15 ) ;
#69 = DIRECTION ( 'NONE',  ( -4.275831445896958607E-31, -1.000000000000000000, -1.224646799147353207E-16 ) ) ;
#70 = AXIS2_PLACEMENT_3D ( 'NONE', #211, #127, #30 ) ;
#71 = CARTESIAN_POINT ( 'NONE',  ( 1.602497467038425322E-13, -1.200000000000003064, 46.00000000000000000 ) ) ;
#72 = ORIENTED_EDGE ( 'NONE', *, *, #31, .F. ) ;
#73 = AXIS2_PLACEMENT_3D ( 'NONE', #97, #46, #286 ) ;
#74 = ORIENTED_EDGE ( 'NONE', *, *, #84, .F. ) ;
#75 = APPLICATION_CONTEXT ( 'configuration controlled 3d designs of mechanical parts and assemblies' ) ;
#76 = CYLINDRICAL_SURFACE ( 'NONE', #116, 1.499999999999992450 ) ;
#77 = DIRECTION ( 'NONE',  ( -3.491481338843133355E-15, 1.224646799147353207E-16, -1.000000000000000000 ) ) ;
#78 = CIRCLE ( 'NONE', #272, 1.499999999999993117 ) ;
#79 = LINE ( 'NONE', #83, #132 ) ;
#80 = ORIENTED_EDGE ( 'NONE', *, *, #231, .T. ) ;
#81 = APPROVAL_PERSON_ORGANIZATION ( #98, #218, #294 ) ;
#82 = DIRECTION ( 'NONE',  ( -3.491481338843133355E-15, 1.224646799147353207E-16, -1.000000000000000000 ) ) ;
#83 = CARTESIAN_POINT ( 'NONE',  ( 6.413747168845417766E-31, 1.499999999999995337, 1.836970198721024018E-16 ) ) ;
#84 = EDGE_CURVE ( 'NONE', #328, #150, #271, .T. ) ;
#85 = CARTESIAN_POINT ( 'NONE',  ( 1.595606971851311880E-13, -5.596635872103403844E-15, 45.69999999999999574 ) ) ;
#86 = ORIENTED_EDGE ( 'NONE', *, *, #252, .T. ) ;
#87 = PRODUCT_RELATED_PRODUCT_CATEGORY ( 'detail', '', ( #159 ) ) ;
#88 = SHAPE_DEFINITION_REPRESENTATION ( #13, #174 ) ;
#89 = DIRECTION ( 'NONE',  ( -3.491481338843133355E-15, 1.224646799147353207E-16, -1.000000000000000000 ) ) ;
#90 = AXIS2_PLACEMENT_3D ( 'NONE', #12, #36, #208 ) ;
#91 = CARTESIAN_POINT ( 'NONE',  ( 1.606081415867841091E-13, -5.633375276077824704E-15, 46.00000000000000000 ) ) ;
#92 = ORIENTED_EDGE ( 'NONE', *, *, #105, .F. ) ;
#93 = CC_DESIGN_PERSON_AND_ORGANIZATION_ASSIGNMENT ( #221, #163, ( #68 ) ) ;
#94 = EDGE_LOOP ( 'NONE', ( #23, #179, #220, #113 ) ) ;
#95 = PERSON_AND_ORGANIZATION_ROLE ( 'design_owner' ) ;
#96 = DIRECTION ( 'NONE',  ( 4.275831445896958607E-31, 1.000000000000000000, 1.224646799147353207E-16 ) ) ;
#97 = CARTESIAN_POINT ( 'NONE',  ( 3.146840457870708605E-15, -1.103763050738704937E-16, 0.9012909285413457372 ) ) ;
#98 = PERSON_AND_ORGANIZATION ( #10, #102 ) ;
#99 = APPROVAL_DATE_TIME ( #199, #121 ) ;
#100 = DIRECTION ( 'NONE',  ( 0.0000000000000000000, 1.000000000000000000, 0.0000000000000000000 ) ) ;
#101 = VECTOR ( 'NONE', #337, 1000.000000000000000 ) ;
#102 = ORGANIZATION ( 'UNSPECIFIED', 'UNSPECIFIED', '' ) ;
#103 = DIRECTION ( 'NONE',  ( -3.491481338843133355E-15, 1.224646799147353207E-16, -1.000000000000000000 ) ) ;
#104 = ORIENTED_EDGE ( 'NONE', *, *, #327, .F. ) ;
#105 = EDGE_CURVE ( 'NONE', #185, #280, #20, .T. ) ;
#106 = DIRECTION ( 'NONE',  ( -3.491481338843133355E-15, 1.224646799147353207E-16, -1.000000000000000000 ) ) ;
#107 = APPLICATION_CONTEXT ( 'configuration controlled 3d designs of mechanical parts and assemblies' ) ;
#108 = CARTESIAN_POINT ( 'NONE',  ( 1.606081415867841091E-13, -5.633375276077824704E-15, 46.00000000000000000 ) ) ;
#109 = VECTOR ( 'NONE', #106, 1000.000000000000000 ) ;
#110 = LOCAL_TIME ( 9, 22, 17.00000000000000000, #114 ) ;
#111 = COORDINATED_UNIVERSAL_TIME_OFFSET ( 1, 0, .AHEAD. ) ;
#112 = APPROVAL_DATE_TIME ( #245, #155 ) ;
#113 = ORIENTED_EDGE ( 'NONE', *, *, #169, .F. ) ;
#114 = COORDINATED_UNIVERSAL_TIME_OFFSET ( 1, 0, .AHEAD. ) ;
#115 = PERSON_AND_ORGANIZATION_ROLE ( 'design_supplier' ) ;
#116 = AXIS2_PLACEMENT_3D ( 'NONE', #336, #29, #96 ) ;
#117 = DIRECTION ( 'NONE',  ( 0.0000000000000000000, 1.000000000000000000, 0.0000000000000000000 ) ) ;
#118 = EDGE_CURVE ( 'NONE', #162, #150, #120, .T. ) ;
#119 = DIRECTION ( 'NONE',  ( -3.491481338843133355E-15, 1.224646799147353207E-16, -1.000000000000000000 ) ) ;
#120 = CIRCLE ( 'NONE', #297, 1.499999999999991784 ) ;
#121 = APPROVAL ( #156, 'UNSPECIFIED' ) ;
#122 = DIRECTION ( 'NONE',  ( -3.491481338843133355E-15, 1.224646799147353207E-16, -1.000000000000000000 ) ) ;
#123 = AXIS2_PLACEMENT_3D ( 'NONE', #85, #206, #100 ) ;
#124 = PRODUCT_DEFINITION_FORMATION_WITH_SPECIFIED_SOURCE ( 'ANY', '', #159, .NOT_KNOWN. ) ;
#125 = EDGE_CURVE ( 'NONE', #328, #162, #25, .T. ) ;
#126 = CARTESIAN_POINT ( 'NONE',  ( 3.146840457870707816E-15, -1.499999999999992006, 0.9012909285413455152 ) ) ;
#127 = DIRECTION ( 'NONE',  ( -3.491481338843133355E-15, 1.224646799147353207E-16, -1.000000000000000000 ) ) ;
#128 = EDGE_LOOP ( 'NONE', ( #145, #18, #37 ) ) ;
#129 = DIRECTION ( 'NONE',  ( -3.491481338843133355E-15, 1.224646799147353207E-16, -1.000000000000000000 ) ) ;
#130 = COORDINATED_UNIVERSAL_TIME_OFFSET ( 1, 0, .AHEAD. ) ;
#131 = ADVANCED_FACE ( 'NONE', ( #176 ), #213, .T. ) ;
#132 = VECTOR ( 'NONE', #242, 1000.000000000000000 ) ;
#133 = DIRECTION ( 'NONE',  ( 0.0000000000000000000, 1.000000000000000000, 0.0000000000000000000 ) ) ;
#134 = FACE_OUTER_BOUND ( 'NONE', #223, .T. ) ;
#135 = CALENDAR_DATE ( 2021, 3, 9 ) ;
#136 = ORIENTED_EDGE ( 'NONE', *, *, #279, .T. ) ;
#137 = APPROVAL_DATE_TIME ( #277, #218 ) ;
#138 = VERTEX_POINT ( 'NONE', #259 ) ;
#139 = CC_DESIGN_APPROVAL ( #121, ( #243 ) ) ;
#140 = PERSON_AND_ORGANIZATION ( #10, #102 ) ;
#141 = VERTEX_POINT ( 'NONE', #273 ) ;
#142 = CARTESIAN_POINT ( 'NONE',  ( 1.606081415867841091E-13, 1.199999999999991962, 46.00000000000000000 ) ) ;
#143 = ADVANCED_FACE ( 'NONE', ( #332 ), #333, .T. ) ;
#144 = CLOSED_SHELL ( 'NONE', ( #181, #143, #66, #165, #52 ) ) ;
#145 = ORIENTED_EDGE ( 'NONE', *, *, #125, .F. ) ;
#146 = CARTESIAN_POINT ( 'NONE',  ( 1.607550992026818115E-13, -1.200000000000003064, 46.00000000000000000 ) ) ;
#147 = CC_DESIGN_DATE_AND_TIME_ASSIGNMENT ( #32, #317, ( #243 ) ) ;
#148 = DIRECTION ( 'NONE',  ( 0.0000000000000000000, 1.000000000000000000, 0.0000000000000000000 ) ) ;
#149 = CIRCLE ( 'NONE', #56, 1.499999999999993117 ) ;
#150 = VERTEX_POINT ( 'NONE', #126 ) ;
#151 = DIRECTION ( 'NONE',  ( 5.135813185032656676E-31, 1.000000000000000000, 1.445602896647347052E-16 ) ) ;
#152 = CC_DESIGN_PERSON_AND_ORGANIZATION_ASSIGNMENT ( #296, #115, ( #124 ) ) ;
#153 = AXIS2_PLACEMENT_3D ( 'NONE', #331, #276, #69 ) ;
#154 = APPROVAL_PERSON_ORGANIZATION ( #197, #121, #304 ) ;
#155 = APPROVAL ( #322, 'UNSPECIFIED' ) ;
#156 = APPROVAL_STATUS ( 'not_yet_approved' ) ;
#157 = DIRECTION ( 'NONE',  ( 5.135813185032656676E-31, 1.000000000000000000, 1.445602896647347052E-16 ) ) ;
#158 = EDGE_LOOP ( 'NONE', ( #92, #314 ) ) ;
#159 = PRODUCT ( '41840', '41840', '', ( #274 ) ) ;
#160 = CIRCLE ( 'NONE', #14, 1.199999999999997513 ) ;
#161 =( GEOMETRIC_REPRESENTATION_CONTEXT ( 3 ) GLOBAL_UNCERTAINTY_ASSIGNED_CONTEXT ( ( #47 ) ) GLOBAL_UNIT_ASSIGNED_CONTEXT ( ( #219, #249, #255 ) ) REPRESENTATION_CONTEXT ( 'NONE', 'WORKASPACE' ) );
#162 = VERTEX_POINT ( 'NONE', #282 ) ;
#163 = PERSON_AND_ORGANIZATION_ROLE ( 'classification_officer' ) ;
#164 = DIRECTION ( 'NONE',  ( -5.135813185032656676E-31, -1.000000000000000000, -1.445602896647347052E-16 ) ) ;
#165 = ADVANCED_FACE ( 'NONE', ( #192 ), #76, .T. ) ;
#166 = APPLICATION_PROTOCOL_DEFINITION ( 'international standard', 'config_control_design', 1994, #75 ) ;
#167 = MANIFOLD_SOLID_BREP ( 'Corps-Déplacer/Copier1[1]', #42 ) ;
#168 = LINE ( 'NONE', #142, #8 ) ;
#169 = EDGE_CURVE ( 'NONE', #138, #40, #149, .T. ) ;
#170 = DIRECTION ( 'NONE',  ( 0.0000000000000000000, 1.000000000000000000, 0.0000000000000000000 ) ) ;
#171 = DIRECTION ( 'NONE',  ( 0.0000000000000000000, 1.000000000000000000, 0.0000000000000000000 ) ) ;
#172 = ORIENTED_EDGE ( 'NONE', *, *, #231, .F. ) ;
#173 = DIRECTION ( 'NONE',  ( -3.491481338843133355E-15, 1.224646799147353207E-16, -1.000000000000000000 ) ) ;
#174 = ADVANCED_BREP_SHAPE_REPRESENTATION ( '41840', ( #167, #275, #207 ), #161 ) ;
#175 = CC_DESIGN_PERSON_AND_ORGANIZATION_ASSIGNMENT ( #35, #63, ( #124 ) ) ;
#176 = FACE_OUTER_BOUND ( 'NONE', #209, .T. ) ;
#177 = DIRECTION ( 'NONE',  ( 0.0000000000000000000, 1.000000000000000000, 0.0000000000000000000 ) ) ;
#178 = AXIS2_PLACEMENT_3D ( 'NONE', #91, #278, #171 ) ;
#179 = ORIENTED_EDGE ( 'NONE', *, *, #291, .T. ) ;
#180 = VECTOR ( 'NONE', #217, 1000.000000000000114 ) ;
#181 = ADVANCED_FACE ( 'NONE', ( #229 ), #1, .T. ) ;
#182 = APPLICATION_PROTOCOL_DEFINITION ( 'international standard', 'config_control_design', 1994, #107 ) ;
#183 = ORIENTED_EDGE ( 'NONE', *, *, #31, .T. ) ;
#184 = CARTESIAN_POINT ( 'NONE',  ( 0.0000000000000000000, 0.0000000000000000000, 0.0000000000000000000 ) ) ;
#185 = VERTEX_POINT ( 'NONE', #5 ) ;
#186 = COORDINATED_UNIVERSAL_TIME_OFFSET ( 1, 0, .AHEAD. ) ;
#187 = CC_DESIGN_DATE_AND_TIME_ASSIGNMENT ( #11, #253, ( #68 ) ) ;
#188 = CALENDAR_DATE ( 2021, 3, 9 ) ;
#189 = VECTOR ( 'NONE', #318, 1000.000000000000000 ) ;
#190 = ADVANCED_FACE ( 'NONE', ( #58 ), #239, .T. ) ;
#191 = DIRECTION ( 'NONE',  ( 1.000000000000000000, 0.0000000000000000000, 0.0000000000000000000 ) ) ;
#192 = FACE_OUTER_BOUND ( 'NONE', #299, .T. ) ;
#193 = EDGE_LOOP ( 'NONE', ( #22, #215 ) ) ;
#194 = DIRECTION ( 'NONE',  ( 3.491481338843133355E-15, -1.224646799147353207E-16, 1.000000000000000000 ) ) ;
#195 = CARTESIAN_POINT ( 'NONE',  ( 1.606081415867841091E-13, -5.633375276077824704E-15, 46.00000000000000000 ) ) ;
#196 = AXIS2_PLACEMENT_3D ( 'NONE', #216, #289, #164 ) ;
#197 = PERSON_AND_ORGANIZATION ( #10, #102 ) ;
#198 = ORIENTED_EDGE ( 'NONE', *, *, #252, .F. ) ;
#199 = DATE_AND_TIME ( #188, #248 ) ;
#200 = EDGE_CURVE ( 'NONE', #54, #324, #303, .T. ) ;
#201 = AXIS2_PLACEMENT_3D ( 'NONE', #254, #48, #19 ) ;
#202 = FACE_OUTER_BOUND ( 'NONE', #94, .T. ) ;
#203 = CALENDAR_DATE ( 2021, 3, 9 ) ;
#204 = CARTESIAN_POINT ( 'NONE',  ( 2.270600528186623822E-14, -1.499999999999994671, 12.00000000000000000 ) ) ;
#205 = EDGE_LOOP ( 'NONE', ( #60, #61, #244, #288 ) ) ;
#206 = DIRECTION ( 'NONE',  ( -3.491481338843133355E-15, 1.224646799147353207E-16, -1.000000000000000000 ) ) ;
#207 = AXIS2_PLACEMENT_3D ( 'NONE', #326, #44, #191 ) ;
#208 = DIRECTION ( 'NONE',  ( 0.0000000000000000000, 1.000000000000000000, 0.0000000000000000000 ) ) ;
#209 = EDGE_LOOP ( 'NONE', ( #198, #262, #136, #226 ) ) ;
#210 = PLANE ( 'NONE',  #268 ) ;
#211 = CARTESIAN_POINT ( 'NONE',  ( 0.0000000000000000000, 0.0000000000000000000, 0.0000000000000000000 ) ) ;
#212 = EDGE_CURVE ( 'NONE', #280, #185, #306, .T. ) ;
#213 = CONICAL_SURFACE ( 'NONE', #178, 1.199999999999997513, 0.7853981633974450594 ) ;
#214 = DIRECTION ( 'NONE',  ( 0.0000000000000000000, 1.000000000000000000, 0.0000000000000000000 ) ) ;
#215 = ORIENTED_EDGE ( 'NONE', *, *, #169, .T. ) ;
#216 = CARTESIAN_POINT ( 'NONE',  ( 3.146840457870708605E-15, -1.103763050738704937E-16, 0.9012909285413457372 ) ) ;
#217 = DIRECTION ( 'NONE',  ( -2.382254525458724175E-15, -0.7071067811865451302, -0.7071067811865499042 ) ) ;
#218 = APPROVAL ( #266, 'UNSPECIFIED' ) ;
#219 =( LENGTH_UNIT ( ) NAMED_UNIT ( * ) SI_UNIT ( .MILLI., .METRE. ) );
#220 = ORIENTED_EDGE ( 'NONE', *, *, #327, .T. ) ;
#221 = PERSON_AND_ORGANIZATION ( #10, #102 ) ;
#222 = AXIS2_PLACEMENT_3D ( 'NONE', #251, #89, #117 ) ;
#223 = EDGE_LOOP ( 'NONE', ( #172, #7 ) ) ;
#224 = PLANE ( 'NONE',  #153 ) ;
#225 = ADVANCED_FACE ( 'NONE', ( #301 ), #224, .F. ) ;
#226 = ORIENTED_EDGE ( 'NONE', *, *, #291, .F. ) ;
#227 = CIRCLE ( 'NONE', #90, 1.499999999999997113 ) ;
#228 = LOCAL_TIME ( 9, 22, 17.00000000000000000, #330 ) ;
#229 = FACE_OUTER_BOUND ( 'NONE', #205, .T. ) ;
#230 = ORIENTED_EDGE ( 'NONE', *, *, #316, .F. ) ;
#231 = EDGE_CURVE ( 'NONE', #324, #54, #160, .T. ) ;
#232 = LINE ( 'NONE', #310, #41 ) ;
#233 = DIRECTION ( 'NONE',  ( 4.275831445896958607E-31, 1.000000000000000000, 1.224646799147353207E-16 ) ) ;
#234 = EDGE_LOOP ( 'NONE', ( #183, #269, #300, #104 ) ) ;
#235 = DIRECTION ( 'NONE',  ( 4.275831445896958607E-31, 1.000000000000000000, 1.224646799147353207E-16 ) ) ;
#236 = CARTESIAN_POINT ( 'NONE',  ( 1.595606971851311880E-13, 1.499999999999991562, 45.69999999999999574 ) ) ;
#237 = LOCAL_TIME ( 9, 22, 17.00000000000000000, #130 ) ;
#238 = FACE_OUTER_BOUND ( 'NONE', #50, .T. ) ;
#239 = CYLINDRICAL_SURFACE ( 'NONE', #246, 1.499999999999995337 ) ;
#240 = CYLINDRICAL_SURFACE ( 'NONE', #70, 1.499999999999995337 ) ;
#241 = CALENDAR_DATE ( 2021, 3, 9 ) ;
#242 = DIRECTION ( 'NONE',  ( -3.491481338843133355E-15, 1.224646799147353207E-16, -1.000000000000000000 ) ) ;
#243 = PRODUCT_DEFINITION ( 'UNKNOWN', '', #124, #64 ) ;
#244 = ORIENTED_EDGE ( 'NONE', *, *, #118, .F. ) ;
#245 = DATE_AND_TIME ( #323, #110 ) ;
#246 = AXIS2_PLACEMENT_3D ( 'NONE', #38, #319, #321 ) ;
#247 = CARTESIAN_POINT ( 'NONE',  ( 3.146840457870707816E-15, -1.499999999999992006, 0.9012909285413455152 ) ) ;
#248 = LOCAL_TIME ( 9, 22, 17.00000000000000000, #111 ) ;
#249 =( NAMED_UNIT ( * ) PLANE_ANGLE_UNIT ( ) SI_UNIT ( $, .RADIAN. ) );
#250 = ORIENTED_EDGE ( 'NONE', *, *, #284, .T. ) ;
#251 = CARTESIAN_POINT ( 'NONE',  ( 1.606081415867841091E-13, -5.633375276077824704E-15, 46.00000000000000000 ) ) ;
#252 = EDGE_CURVE ( 'NONE', #54, #141, #45, .T. ) ;
#253 = DATE_TIME_ROLE ( 'classification_date' ) ;
#254 = CARTESIAN_POINT ( 'NONE',  ( 4.189777606611760026E-14, -1.469576158976823947E-15, 12.00000000000000000 ) ) ;
#255 =( NAMED_UNIT ( * ) SI_UNIT ( $, .STERADIAN. ) SOLID_ANGLE_UNIT ( ) );
#256 = ORIENTED_EDGE ( 'NONE', *, *, #43, .F. ) ;
#257 = CC_DESIGN_PERSON_AND_ORGANIZATION_ASSIGNMENT ( #140, #260, ( #243 ) ) ;
#258 = DIRECTION ( 'NONE',  ( -4.275831445896958607E-31, -1.000000000000000000, -1.224646799147353207E-16 ) ) ;
#259 = CARTESIAN_POINT ( 'NONE',  ( 1.009129336454964464E-13, -1.499999999999994671, 12.00000000000000000 ) ) ;
#260 = PERSON_AND_ORGANIZATION_ROLE ( 'creator' ) ;
#261 = DIRECTION ( 'NONE',  ( -2.468850131082272838E-15, 0.7071067811865453523, -0.7071067811865496822 ) ) ;
#262 = ORIENTED_EDGE ( 'NONE', *, *, #200, .T. ) ;
#263 = CONICAL_SURFACE ( 'NONE', #196, 1.499999999999991784, 1.029744258676649649 ) ;
#264 = ORIENTED_EDGE ( 'NONE', *, *, #279, .F. ) ;
#265 = AXIS2_PLACEMENT_3D ( 'NONE', #55, #122, #233 ) ;
#266 = APPROVAL_STATUS ( 'not_yet_approved' ) ;
#267 = FACE_OUTER_BOUND ( 'NONE', #128, .T. ) ;
#268 = AXIS2_PLACEMENT_3D ( 'NONE', #6, #194, #258 ) ;
#269 = ORIENTED_EDGE ( 'NONE', *, *, #4, .T. ) ;
#270 = CARTESIAN_POINT ( 'NONE',  ( 1.836970198721014157E-16, -1.499999999999992450, -1.836970198721026976E-16 ) ) ;
#271 = LINE ( 'NONE', #247, #101 ) ;
#272 = AXIS2_PLACEMENT_3D ( 'NONE', #59, #308, #133 ) ;
#273 = CARTESIAN_POINT ( 'NONE',  ( 1.009129336454963454E-13, -1.500000000000002665, 45.69999999999999574 ) ) ;
#274 = MECHANICAL_CONTEXT ( 'NONE', #75, 'mechanical' ) ;
#275 = MANIFOLD_SOLID_BREP ( 'Corps-Déplacer/Copier1[2]', #144 ) ;
#276 = DIRECTION ( 'NONE',  ( 3.491481338843133355E-15, -1.224646799147353207E-16, 1.000000000000000000 ) ) ;
#277 = DATE_AND_TIME ( #241, #237 ) ;
#278 = DIRECTION ( 'NONE',  ( -3.491481338843133355E-15, 1.224646799147353207E-16, -1.000000000000000000 ) ) ;
#279 = EDGE_CURVE ( 'NONE', #324, #49, #168, .T. ) ;
#280 = VERTEX_POINT ( 'NONE', #204 ) ;
#281 = AXIS2_PLACEMENT_3D ( 'NONE', #108, #103, #214 ) ;
#282 = CARTESIAN_POINT ( 'NONE',  ( 3.330537477742810933E-15, 1.499999999999991562, 0.9012909285413459592 ) ) ;
#283 = CARTESIAN_POINT ( 'NONE',  ( 3.146840457870708605E-15, -1.103763050738704937E-16, 0.9012909285413457372 ) ) ;
#284 = EDGE_CURVE ( 'NONE', #185, #162, #232, .T. ) ;
#285 = AXIS2_PLACEMENT_3D ( 'NONE', #2, #77, #177 ) ;
#286 = DIRECTION ( 'NONE',  ( -5.135813185032656676E-31, -1.000000000000000000, -1.445602896647347052E-16 ) ) ;
#287 = EDGE_LOOP ( 'NONE', ( #74, #16, #335 ) ) ;
#288 = ORIENTED_EDGE ( 'NONE', *, *, #284, .F. ) ;
#289 = DIRECTION ( 'NONE',  ( 3.491481338843133355E-15, -1.224646799147353207E-16, 1.000000000000000000 ) ) ;
#290 = LINE ( 'NONE', #270, #189 ) ;
#291 = EDGE_CURVE ( 'NONE', #141, #49, #227, .T. ) ;
#292 = CARTESIAN_POINT ( 'NONE',  ( 4.189777606611760026E-14, 1.499999999999991562, 12.00000000000000000 ) ) ;
#293 = CC_DESIGN_APPROVAL ( #155, ( #68 ) ) ;
#294 = APPROVAL_ROLE ( '' ) ;
#295 = PERSON_AND_ORGANIZATION ( #10, #102 ) ;
#296 = PERSON_AND_ORGANIZATION ( #10, #102 ) ;
#297 = AXIS2_PLACEMENT_3D ( 'NONE', #283, #53, #151 ) ;
#298 = CC_DESIGN_APPROVAL ( #218, ( #124 ) ) ;
#299 = EDGE_LOOP ( 'NONE', ( #230, #329, #250, #256 ) ) ;
#300 = ORIENTED_EDGE ( 'NONE', *, *, #17, .F. ) ;
#301 = FACE_OUTER_BOUND ( 'NONE', #193, .T. ) ;
#302 = CC_DESIGN_PERSON_AND_ORGANIZATION_ASSIGNMENT ( #311, #95, ( #159 ) ) ;
#303 = CIRCLE ( 'NONE', #222, 1.199999999999997513 ) ;
#304 = APPROVAL_ROLE ( '' ) ;
#305 = ADVANCED_FACE ( 'NONE', ( #134 ), #33, .F. ) ;
#306 = CIRCLE ( 'NONE', #201, 1.499999999999993117 ) ;
#307 = DIRECTION ( 'NONE',  ( 1.903218546456022717E-15, 0.8571673007021097801, 0.5150380749100585964 ) ) ;
#308 = DIRECTION ( 'NONE',  ( -3.491481338843133355E-15, 1.224646799147353207E-16, -1.000000000000000000 ) ) ;
#309 = ADVANCED_FACE ( 'NONE', ( #238 ), #51, .T. ) ;
#310 = CARTESIAN_POINT ( 'NONE',  ( 6.413747168845405505E-31, 1.499999999999992450, 1.836970198721020566E-16 ) ) ;
#311 = PERSON_AND_ORGANIZATION ( #10, #102 ) ;
#312 = CARTESIAN_POINT ( 'NONE',  ( 1.836970198721017855E-16, -1.499999999999995337, -1.836970198721030427E-16 ) ) ;
#313 = CARTESIAN_POINT ( 'NONE',  ( 3.330537477742810933E-15, 1.499999999999991562, 0.9012909285413459592 ) ) ;
#314 = ORIENTED_EDGE ( 'NONE', *, *, #212, .F. ) ;
#315 = CARTESIAN_POINT ( 'NONE',  ( 1.606081415867841091E-13, 8.998558695971043013E-33, 46.00000000000000000 ) ) ;
#316 = EDGE_CURVE ( 'NONE', #280, #150, #290, .T. ) ;
#317 = DATE_TIME_ROLE ( 'creation_date' ) ;
#318 = DIRECTION ( 'NONE',  ( -3.491481338843133355E-15, 1.224646799147353207E-16, -1.000000000000000000 ) ) ;
#319 = DIRECTION ( 'NONE',  ( -3.491481338843133355E-15, 1.224646799147353207E-16, -1.000000000000000000 ) ) ;
#320 = VECTOR ( 'NONE', #307, 999.9999999999998863 ) ;
#321 = DIRECTION ( 'NONE',  ( 4.275831445896958607E-31, 1.000000000000000000, 1.224646799147353207E-16 ) ) ;
#322 = APPROVAL_STATUS ( 'not_yet_approved' ) ;
#323 = CALENDAR_DATE ( 2021, 3, 9 ) ;
#324 = VERTEX_POINT ( 'NONE', #34 ) ;
#325 = AXIS2_PLACEMENT_3D ( 'NONE', #39, #82, #157 ) ;
#326 = CARTESIAN_POINT ( 'NONE',  ( 0.0000000000000000000, 0.0000000000000000000, 0.0000000000000000000 ) ) ;
#327 = EDGE_CURVE ( 'NONE', #49, #40, #79, .T. ) ;
#328 = VERTEX_POINT ( 'NONE', #184 ) ;
#329 = ORIENTED_EDGE ( 'NONE', *, *, #212, .T. ) ;
#330 = COORDINATED_UNIVERSAL_TIME_OFFSET ( 1, 0, .AHEAD. ) ;
#331 = CARTESIAN_POINT ( 'NONE',  ( 4.189777606611760026E-14, 1.124819836996385816E-32, 12.00000000000000000 ) ) ;
#332 = FACE_OUTER_BOUND ( 'NONE', #287, .T. ) ;
#333 = CONICAL_SURFACE ( 'NONE', #73, 1.499999999999991784, 1.029744258676649649 ) ;
#334 = CC_DESIGN_SECURITY_CLASSIFICATION ( #68, ( #124 ) ) ;
#335 = ORIENTED_EDGE ( 'NONE', *, *, #118, .T. ) ;
#336 = CARTESIAN_POINT ( 'NONE',  ( 0.0000000000000000000, 0.0000000000000000000, 0.0000000000000000000 ) ) ;
#337 = DIRECTION ( 'NONE',  ( 1.798245827342160317E-15, -0.8571673007021098911, 0.5150380749100582634 ) ) ;
ENDSEC;
END-ISO-10303-21;
