ISO-10303-21;
HEADER;
FILE_DESCRIPTION (( 'STEP AP203' ),
    '1' );
FILE_NAME ('41809.step',
    '2021-11-01T10:35:09',
    ( '' ),
    ( '' ),
    'SwSTEP 2.0',
    'SolidWorks 2019',
    '' );
FILE_SCHEMA (( 'CONFIG_CONTROL_DESIGN' ));
ENDSEC;

DATA;
#1 = ORIENTED_EDGE ( 'NONE', *, *, #19, .T. ) ;
#2 = CARTESIAN_POINT ( 'NONE',  ( 5.586370142149013368E-14, 3.999999999999993339, 16.00000000000000000 ) ) ;
#3 = APPROVAL ( #29, 'UNSPECIFIED' ) ;
#4 = DIRECTION ( 'NONE',  ( 1.000000000000000000, 0.0000000000000000000, 0.0000000000000000000 ) ) ;
#5 =( NAMED_UNIT ( * ) SI_UNIT ( $, .STERADIAN. ) SOLID_ANGLE_UNIT ( ) );
#6 = AXIS2_PLACEMENT_3D ( 'NONE', #218, #185, #167 ) ;
#7 = APPLICATION_PROTOCOL_DEFINITION ( 'international standard', 'config_control_design', 1994, #31 ) ;
#8 = DIRECTION ( 'NONE',  ( 0.0000000000000000000, 1.000000000000000000, 0.0000000000000000000 ) ) ;
#9 = PERSON_AND_ORGANIZATION ( #92, #156 ) ;
#10 = CARTESIAN_POINT ( 'NONE',  ( 5.586370142149013368E-14, -1.959434878635765131E-15, 16.00000000000000000 ) ) ;
#11 = DIRECTION ( 'NONE',  ( -3.491481338843133355E-15, 1.224646799147353207E-16, -1.000000000000000000 ) ) ;
#12 = DIRECTION ( 'NONE',  ( 4.275831445896958607E-31, 1.000000000000000000, 1.224646799147353207E-16 ) ) ;
#13 = CALENDAR_DATE ( 2021, 1, 11 ) ;
#14 = ADVANCED_FACE ( 'NONE', ( #126 ), #120, .F. ) ;
#15 = AXIS2_PLACEMENT_3D ( 'NONE', #164, #86, #4 ) ;
#16 = ADVANCED_FACE ( 'NONE', ( #37 ), #101, .F. ) ;
#17 =( GEOMETRIC_REPRESENTATION_CONTEXT ( 3 ) GLOBAL_UNCERTAINTY_ASSIGNED_CONTEXT ( ( #40 ) ) GLOBAL_UNIT_ASSIGNED_CONTEXT ( ( #25, #175, #5 ) ) REPRESENTATION_CONTEXT ( 'NONE', 'WORKASPACE' ) );
#18 = ORIENTED_EDGE ( 'NONE', *, *, #19, .F. ) ;
#19 = EDGE_CURVE ( 'NONE', #55, #55, #125, .T. ) ;
#20 = DATE_AND_TIME ( #121, #41 ) ;
#21 = ORIENTED_EDGE ( 'NONE', *, *, #93, .F. ) ;
#22 = CARTESIAN_POINT ( 'NONE',  ( 6.982962677686224309E-16, -4.000000000000000000, 0.1999999999999987899 ) ) ;
#23 = CARTESIAN_POINT ( 'NONE',  ( 2.199633243471174140E-13, -7.715274834628325378E-15, 63.00000000000000000 ) ) ;
#24 = AXIS2_PLACEMENT_3D ( 'NONE', #184, #44, #83 ) ;
#25 =( LENGTH_UNIT ( ) NAMED_UNIT ( * ) SI_UNIT ( .MILLI., .METRE. ) );
#26 = FACE_OUTER_BOUND ( 'NONE', #59, .T. ) ;
#27 = APPROVAL ( #42, 'UNSPECIFIED' ) ;
#28 = FACE_OUTER_BOUND ( 'NONE', #39, .T. ) ;
#29 = APPROVAL_STATUS ( 'not_yet_approved' ) ;
#30 = DIRECTION ( 'NONE',  ( 4.275831445896958607E-31, 1.000000000000000000, 1.224646799147353207E-16 ) ) ;
#31 = APPLICATION_CONTEXT ( 'configuration controlled 3d designs of mechanical parts and assemblies' ) ;
#32 = CONICAL_SURFACE ( 'NONE', #57, 3.500000000000000444, 0.7853981633974482790 ) ;
#33 = CARTESIAN_POINT ( 'NONE',  ( 6.982962677686241073E-16, -2.453312193277547009E-17, 0.1999999999999992895 ) ) ;
#34 = CC_DESIGN_PERSON_AND_ORGANIZATION_ASSIGNMENT ( #79, #145, ( #128 ) ) ;
#35 = DATE_TIME_ROLE ( 'classification_date' ) ;
#36 = ADVANCED_FACE ( 'NONE', ( #28 ), #81, .T. ) ;
#37 = FACE_OUTER_BOUND ( 'NONE', #91, .T. ) ;
#38 = PERSON_AND_ORGANIZATION ( #92, #156 ) ;
#39 = EDGE_LOOP ( 'NONE', ( #162 ) ) ;
#40 = UNCERTAINTY_MEASURE_WITH_UNIT (LENGTH_MEASURE( 1.000000000000000082E-05 ), #25, 'distance_accuracy_value', 'NONE');
#41 = LOCAL_TIME ( 11, 35, 9.000000000000000000, #179 ) ;
#42 = APPROVAL_STATUS ( 'not_yet_approved' ) ;
#43 = CARTESIAN_POINT ( 'NONE',  ( 5.586370142149013368E-14, 3.999999999999993339, 16.00000000000000000 ) ) ;
#44 = DIRECTION ( 'NONE',  ( 3.491481338843133355E-15, -1.226656096638776648E-16, 1.000000000000000000 ) ) ;
#45 = APPROVAL_ROLE ( '' ) ;
#46 = PERSON_AND_ORGANIZATION_ROLE ( 'creator' ) ;
#47 = DIRECTION ( 'NONE',  ( -3.491481338843133355E-15, 1.224646799147353207E-16, -1.000000000000000000 ) ) ;
#48 = CYLINDRICAL_SURFACE ( 'NONE', #183, 3.999999999999994227 ) ;
#49 = ADVANCED_FACE ( 'NONE', ( #109, #95 ), #32, .T. ) ;
#50 = APPROVAL_PERSON_ORGANIZATION ( #38, #27, #105 ) ;
#51 = EDGE_CURVE ( 'NONE', #211, #211, #131, .T. ) ;
#52 = CIRCLE ( 'NONE', #85, 3.500000000000000444 ) ;
#53 = EDGE_LOOP ( 'NONE', ( #18 ) ) ;
#54 = CARTESIAN_POINT ( 'NONE',  ( 6.982962677686241073E-16, -2.453312193277547009E-17, 0.1999999999999992895 ) ) ;
#55 = VERTEX_POINT ( 'NONE', #139 ) ;
#56 = ORIENTED_EDGE ( 'NONE', *, *, #51, .T. ) ;
#57 = AXIS2_PLACEMENT_3D ( 'NONE', #129, #47, #148 ) ;
#58 = SECURITY_CLASSIFICATION ( '', '', #115 ) ;
#59 = EDGE_LOOP ( 'NONE', ( #142 ) ) ;
#60 = FACE_OUTER_BOUND ( 'NONE', #144, .T. ) ;
#61 = PRODUCT_DEFINITION ( 'UNKNOWN', '', #146, #178 ) ;
#62 = DATE_AND_TIME ( #203, #155 ) ;
#63 = MANIFOLD_SOLID_BREP ( 'Corps-Déplacer/Copier1[2]', #119 ) ;
#64 = DIRECTION ( 'NONE',  ( -3.491481338843133355E-15, 1.224646799147353207E-16, -1.000000000000000000 ) ) ;
#65 = AXIS2_PLACEMENT_3D ( 'NONE', #169, #187, #66 ) ;
#66 = DIRECTION ( 'NONE',  ( -4.275831445896958607E-31, -1.000000000000000000, -1.224646799147353207E-16 ) ) ;
#67 = DIRECTION ( 'NONE',  ( 4.275831445896958607E-31, 1.000000000000000000, 1.224646799147353207E-16 ) ) ;
#68 = PERSON_AND_ORGANIZATION ( #92, #156 ) ;
#69 = CLOSED_SHELL ( 'NONE', ( #14, #195, #49, #16 ) ) ;
#70 = LOCAL_TIME ( 11, 35, 9.000000000000000000, #112 ) ;
#71 = CC_DESIGN_PERSON_AND_ORGANIZATION_ASSIGNMENT ( #98, #46, ( #146 ) ) ;
#72 = EDGE_LOOP ( 'NONE', ( #158 ) ) ;
#73 = VERTEX_POINT ( 'NONE', #22 ) ;
#74 = AXIS2_PLACEMENT_3D ( 'NONE', #130, #84, #96 ) ;
#75 = ORIENTED_EDGE ( 'NONE', *, *, #93, .T. ) ;
#76 = PERSON_AND_ORGANIZATION_ROLE ( 'creator' ) ;
#77 = CC_DESIGN_PERSON_AND_ORGANIZATION_ASSIGNMENT ( #147, #76, ( #61 ) ) ;
#78 = CARTESIAN_POINT ( 'NONE',  ( -3.254963621650262419E-30, -3.800000000000001599, -9.322586334454706368E-16 ) ) ;
#79 = PERSON_AND_ORGANIZATION ( #92, #156 ) ;
#80 = CC_DESIGN_DATE_AND_TIME_ASSIGNMENT ( #141, #194, ( #61 ) ) ;
#81 = PLANE ( 'NONE',  #6 ) ;
#82 = FACE_OUTER_BOUND ( 'NONE', #177, .T. ) ;
#83 = DIRECTION ( 'NONE',  ( -4.282846870592449122E-31, -1.000000000000000000, -1.226656096638776648E-16 ) ) ;
#84 = DIRECTION ( 'NONE',  ( -3.491481338843133355E-15, 1.224646799147353207E-16, -1.000000000000000000 ) ) ;
#85 = AXIS2_PLACEMENT_3D ( 'NONE', #23, #64, #215 ) ;
#86 = DIRECTION ( 'NONE',  ( 0.0000000000000000000, 0.0000000000000000000, 1.000000000000000000 ) ) ;
#87 = CC_DESIGN_SECURITY_CLASSIFICATION ( #58, ( #146 ) ) ;
#88 = DIRECTION ( 'NONE',  ( -4.333342374871280669E-31, -1.000000000000000000, -1.219727444046192488E-16 ) ) ;
#89 = EDGE_LOOP ( 'NONE', ( #56 ) ) ;
#90 = PERSON_AND_ORGANIZATION ( #92, #156 ) ;
#91 = EDGE_LOOP ( 'NONE', ( #137 ) ) ;
#92 = PERSON ( 'UNSPECIFIED', 'UNSPECIFIED', 'UNSPECIFIED', ('UNSPECIFIED'), ('UNSPECIFIED'), ('UNSPECIFIED') ) ;
#93 = EDGE_CURVE ( 'NONE', #198, #198, #138, .T. ) ;
#94 = DIRECTION ( 'NONE',  ( -3.491481338843133355E-15, 1.224646799147353207E-16, -1.000000000000000000 ) ) ;
#95 = FACE_BOUND ( 'NONE', #180, .T. ) ;
#96 = DIRECTION ( 'NONE',  ( 0.0000000000000000000, 1.000000000000000000, 0.0000000000000000000 ) ) ;
#97 = DIRECTION ( 'NONE',  ( 0.0000000000000000000, 1.000000000000000000, 0.0000000000000000000 ) ) ;
#98 = PERSON_AND_ORGANIZATION ( #92, #156 ) ;
#99 = CIRCLE ( 'NONE', #173, 4.000000000000000000 ) ;
#100 = AXIS2_PLACEMENT_3D ( 'NONE', #111, #94, #8 ) ;
#101 = PLANE ( 'NONE',  #118 ) ;
#102 = ADVANCED_FACE ( 'NONE', ( #26, #82 ), #48, .T. ) ;
#103 = CALENDAR_DATE ( 2021, 1, 11 ) ;
#104 = ORIENTED_EDGE ( 'NONE', *, *, #221, .T. ) ;
#105 = APPROVAL_ROLE ( '' ) ;
#106 = EDGE_CURVE ( 'NONE', #124, #124, #52, .T. ) ;
#107 = VERTEX_POINT ( 'NONE', #2 ) ;
#108 = APPROVAL_DATE_TIME ( #20, #27 ) ;
#109 = FACE_OUTER_BOUND ( 'NONE', #53, .T. ) ;
#110 = PERSON_AND_ORGANIZATION_ROLE ( 'design_supplier' ) ;
#111 = CARTESIAN_POINT ( 'NONE',  ( 2.182175836776958284E-13, -7.654042494670957804E-15, 62.50000000000000000 ) ) ;
#112 = COORDINATED_UNIVERSAL_TIME_OFFSET ( 1, 0, .AHEAD. ) ;
#113 = CYLINDRICAL_SURFACE ( 'NONE', #151, 3.999999999999998224 ) ;
#114 = FACE_OUTER_BOUND ( 'NONE', #206, .T. ) ;
#115 = SECURITY_CLASSIFICATION_LEVEL ( 'unclassified' ) ;
#116 = APPROVAL ( #193, 'UNSPECIFIED' ) ;
#117 = AXIS2_PLACEMENT_3D ( 'NONE', #33, #181, #88 ) ;
#118 = AXIS2_PLACEMENT_3D ( 'NONE', #174, #201, #12 ) ;
#119 = CLOSED_SHELL ( 'NONE', ( #102, #36, #204, #197 ) ) ;
#120 = PLANE ( 'NONE',  #222 ) ;
#121 = CALENDAR_DATE ( 2021, 1, 11 ) ;
#122 = COORDINATED_UNIVERSAL_TIME_OFFSET ( 1, 0, .AHEAD. ) ;
#123 = ORIENTED_EDGE ( 'NONE', *, *, #51, .F. ) ;
#124 = VERTEX_POINT ( 'NONE', #157 ) ;
#125 = CIRCLE ( 'NONE', #100, 4.000000000000000888 ) ;
#126 = FACE_OUTER_BOUND ( 'NONE', #89, .T. ) ;
#127 = CARTESIAN_POINT ( 'NONE',  ( 5.586370142149013368E-14, 2.999519565323708647E-32, 16.00000000000000000 ) ) ;
#128 = PRODUCT ( '41809', '41809', '', ( #196 ) ) ;
#129 = CARTESIAN_POINT ( 'NONE',  ( 2.199633243471174140E-13, -7.715274834628325378E-15, 63.00000000000000000 ) ) ;
#130 = CARTESIAN_POINT ( 'NONE',  ( 5.586370142149013368E-14, -1.959434878635765131E-15, 16.00000000000000000 ) ) ;
#131 = CIRCLE ( 'NONE', #188, 3.999999999999994671 ) ;
#132 = EDGE_CURVE ( 'NONE', #107, #107, #170, .T. ) ;
#133 = DATE_AND_TIME ( #13, #70 ) ;
#134 = PERSON_AND_ORGANIZATION ( #92, #156 ) ;
#135 = ADVANCED_BREP_SHAPE_REPRESENTATION ( '41809', ( #136, #63, #15 ), #17 ) ;
#136 = MANIFOLD_SOLID_BREP ( 'Corps-Déplacer/Copier1[1]', #69 ) ;
#137 = ORIENTED_EDGE ( 'NONE', *, *, #106, .F. ) ;
#138 = CIRCLE ( 'NONE', #24, 3.800000000000001599 ) ;
#139 = CARTESIAN_POINT ( 'NONE',  ( 2.182175836776958284E-13, 3.999999999999993339, 62.50000000000000000 ) ) ;
#140 = LOCAL_TIME ( 11, 35, 9.000000000000000000, #159 ) ;
#141 = DATE_AND_TIME ( #182, #140 ) ;
#142 = ORIENTED_EDGE ( 'NONE', *, *, #132, .T. ) ;
#143 = APPLICATION_PROTOCOL_DEFINITION ( 'international standard', 'config_control_design', 1994, #200 ) ;
#144 = EDGE_LOOP ( 'NONE', ( #123 ) ) ;
#145 = PERSON_AND_ORGANIZATION_ROLE ( 'design_owner' ) ;
#146 = PRODUCT_DEFINITION_FORMATION_WITH_SPECIFIED_SOURCE ( 'ANY', '', #128, .NOT_KNOWN. ) ;
#147 = PERSON_AND_ORGANIZATION ( #92, #156 ) ;
#148 = DIRECTION ( 'NONE',  ( 0.0000000000000000000, 1.000000000000000000, 0.0000000000000000000 ) ) ;
#149 = CARTESIAN_POINT ( 'NONE',  ( 0.0000000000000000000, 0.0000000000000000000, 0.0000000000000000000 ) ) ;
#150 = PLANE ( 'NONE',  #65 ) ;
#151 = AXIS2_PLACEMENT_3D ( 'NONE', #168, #11, #30 ) ;
#152 = FACE_BOUND ( 'NONE', #213, .T. ) ;
#153 = APPROVAL_DATE_TIME ( #62, #3 ) ;
#154 = CC_DESIGN_APPROVAL ( #116, ( #146 ) ) ;
#155 = LOCAL_TIME ( 11, 35, 9.000000000000000000, #166 ) ;
#156 = ORGANIZATION ( 'UNSPECIFIED', 'UNSPECIFIED', '' ) ;
#157 = CARTESIAN_POINT ( 'NONE',  ( 2.199633243471174140E-13, 3.499999999999992895, 63.00000000000000000 ) ) ;
#158 = ORIENTED_EDGE ( 'NONE', *, *, #221, .F. ) ;
#159 = COORDINATED_UNIVERSAL_TIME_OFFSET ( 1, 0, .AHEAD. ) ;
#160 = APPROVAL_PERSON_ORGANIZATION ( #90, #116, #208 ) ;
#161 = ORIENTED_EDGE ( 'NONE', *, *, #106, .T. ) ;
#162 = ORIENTED_EDGE ( 'NONE', *, *, #132, .F. ) ;
#163 = APPROVAL_DATE_TIME ( #176, #116 ) ;
#164 = CARTESIAN_POINT ( 'NONE',  ( 0.0000000000000000000, 0.0000000000000000000, 0.0000000000000000000 ) ) ;
#165 = LOCAL_TIME ( 11, 35, 9.000000000000000000, #122 ) ;
#166 = COORDINATED_UNIVERSAL_TIME_OFFSET ( 1, 0, .AHEAD. ) ;
#167 = DIRECTION ( 'NONE',  ( -4.275831445896958607E-31, -1.000000000000000000, -1.224646799147353207E-16 ) ) ;
#168 = CARTESIAN_POINT ( 'NONE',  ( 0.0000000000000000000, 0.0000000000000000000, 0.0000000000000000000 ) ) ;
#169 = CARTESIAN_POINT ( 'NONE',  ( -6.413786353522005134E-31, 2.249653418127174030E-32, -1.836981421658449264E-16 ) ) ;
#170 = CIRCLE ( 'NONE', #74, 3.999999999999994671 ) ;
#171 = PRODUCT_RELATED_PRODUCT_CATEGORY ( 'detail', '', ( #128 ) ) ;
#172 = CC_DESIGN_DATE_AND_TIME_ASSIGNMENT ( #133, #35, ( #58 ) ) ;
#173 = AXIS2_PLACEMENT_3D ( 'NONE', #54, #214, #209 ) ;
#174 = CARTESIAN_POINT ( 'NONE',  ( 2.199633243471174140E-13, 2.624579619658239319E-32, 63.00000000000000000 ) ) ;
#175 =( NAMED_UNIT ( * ) PLANE_ANGLE_UNIT ( ) SI_UNIT ( $, .RADIAN. ) );
#176 = DATE_AND_TIME ( #103, #165 ) ;
#177 = EDGE_LOOP ( 'NONE', ( #104 ) ) ;
#178 = DESIGN_CONTEXT ( 'detailed design', #200, 'design' ) ;
#179 = COORDINATED_UNIVERSAL_TIME_OFFSET ( 1, 0, .AHEAD. ) ;
#180 = EDGE_LOOP ( 'NONE', ( #161 ) ) ;
#181 = DIRECTION ( 'NONE',  ( 3.491481338843133355E-15, -1.226656096638776648E-16, 1.000000000000000000 ) ) ;
#182 = CALENDAR_DATE ( 2021, 1, 11 ) ;
#183 = AXIS2_PLACEMENT_3D ( 'NONE', #149, #216, #67 ) ;
#184 = CARTESIAN_POINT ( 'NONE',  ( -1.627481810825131210E-30, 3.057917272063404915E-32, -4.661293167227353184E-16 ) ) ;
#185 = DIRECTION ( 'NONE',  ( 3.491481338843133355E-15, -1.224646799147353207E-16, 1.000000000000000000 ) ) ;
#186 = FACE_OUTER_BOUND ( 'NONE', #210, .T. ) ;
#187 = DIRECTION ( 'NONE',  ( 3.491481338843133355E-15, -1.224646799147353207E-16, 1.000000000000000000 ) ) ;
#188 = AXIS2_PLACEMENT_3D ( 'NONE', #10, #199, #97 ) ;
#189 = CC_DESIGN_APPROVAL ( #3, ( #58 ) ) ;
#190 = PERSON_AND_ORGANIZATION_ROLE ( 'classification_officer' ) ;
#191 = CC_DESIGN_APPROVAL ( #27, ( #61 ) ) ;
#192 = DIRECTION ( 'NONE',  ( -4.275831445896958607E-31, -1.000000000000000000, -1.224646799147353207E-16 ) ) ;
#193 = APPROVAL_STATUS ( 'not_yet_approved' ) ;
#194 = DATE_TIME_ROLE ( 'creation_date' ) ;
#195 = ADVANCED_FACE ( 'NONE', ( #60, #114 ), #113, .T. ) ;
#196 = MECHANICAL_CONTEXT ( 'NONE', #31, 'mechanical' ) ;
#197 = ADVANCED_FACE ( 'NONE', ( #186 ), #150, .F. ) ;
#198 = VERTEX_POINT ( 'NONE', #78 ) ;
#199 = DIRECTION ( 'NONE',  ( -3.491481338843133355E-15, 1.224646799147353207E-16, -1.000000000000000000 ) ) ;
#200 = APPLICATION_CONTEXT ( 'configuration controlled 3d designs of mechanical parts and assemblies' ) ;
#201 = DIRECTION ( 'NONE',  ( -3.491481338843133355E-15, 1.224646799147353207E-16, -1.000000000000000000 ) ) ;
#202 = PRODUCT_DEFINITION_SHAPE ( 'NONE', 'NONE',  #61 ) ;
#203 = CALENDAR_DATE ( 2021, 1, 11 ) ;
#204 = ADVANCED_FACE ( 'NONE', ( #152, #219 ), #217, .T. ) ;
#205 = DIRECTION ( 'NONE',  ( 3.491481338843133355E-15, -1.224646799147353207E-16, 1.000000000000000000 ) ) ;
#206 = EDGE_LOOP ( 'NONE', ( #1 ) ) ;
#207 = CC_DESIGN_PERSON_AND_ORGANIZATION_ASSIGNMENT ( #68, #190, ( #58 ) ) ;
#208 = APPROVAL_ROLE ( '' ) ;
#209 = DIRECTION ( 'NONE',  ( -4.333342374871280669E-31, -1.000000000000000000, -1.219727444046192488E-16 ) ) ;
#210 = EDGE_LOOP ( 'NONE', ( #21 ) ) ;
#211 = VERTEX_POINT ( 'NONE', #43 ) ;
#212 = CC_DESIGN_PERSON_AND_ORGANIZATION_ASSIGNMENT ( #9, #110, ( #146 ) ) ;
#213 = EDGE_LOOP ( 'NONE', ( #75 ) ) ;
#214 = DIRECTION ( 'NONE',  ( 3.491481338843133355E-15, -1.226656096638776648E-16, 1.000000000000000000 ) ) ;
#215 = DIRECTION ( 'NONE',  ( 0.0000000000000000000, 1.000000000000000000, 0.0000000000000000000 ) ) ;
#216 = DIRECTION ( 'NONE',  ( -3.491481338843133355E-15, 1.224646799147353207E-16, -1.000000000000000000 ) ) ;
#217 = CONICAL_SURFACE ( 'NONE', #117, 4.000000000000000000, 0.7853981633974447263 ) ;
#218 = CARTESIAN_POINT ( 'NONE',  ( 5.586370142149013368E-14, 2.999519565323708647E-32, 16.00000000000000000 ) ) ;
#219 = FACE_OUTER_BOUND ( 'NONE', #72, .T. ) ;
#220 = SHAPE_DEFINITION_REPRESENTATION ( #202, #135 ) ;
#221 = EDGE_CURVE ( 'NONE', #73, #73, #99, .T. ) ;
#222 = AXIS2_PLACEMENT_3D ( 'NONE', #127, #205, #192 ) ;
#223 = APPROVAL_PERSON_ORGANIZATION ( #134, #3, #45 ) ;
ENDSEC;
END-ISO-10303-21;
