ISO-10303-21;
HEADER;
FILE_DESCRIPTION (( 'STEP AP203' ),
    '1' );
FILE_NAME ('41808.step',
    '2021-11-01T10:35:09',
    ( '' ),
    ( '' ),
    'SwSTEP 2.0',
    'SolidWorks 2019',
    '' );
FILE_SCHEMA (( 'CONFIG_CONTROL_DESIGN' ));
ENDSEC;

DATA;
#1 = CARTESIAN_POINT ( 'NONE',  ( 1.990144363140586139E-13, -6.980486755139912911E-15, 57.00000000000000000 ) ) ;
#2 = APPROVAL_PERSON_ORGANIZATION ( #113, #56, #217 ) ;
#3 = FACE_OUTER_BOUND ( 'NONE', #181, .T. ) ;
#4 = DATE_TIME_ROLE ( 'creation_date' ) ;
#5 = PERSON_AND_ORGANIZATION ( #61, #146 ) ;
#6 = DATE_AND_TIME ( #151, #103 ) ;
#7 = MECHANICAL_CONTEXT ( 'NONE', #185, 'mechanical' ) ;
#8 = FACE_OUTER_BOUND ( 'NONE', #98, .T. ) ;
#9 = EDGE_LOOP ( 'NONE', ( #10 ) ) ;
#10 = ORIENTED_EDGE ( 'NONE', *, *, #141, .F. ) ;
#11 = AXIS2_PLACEMENT_3D ( 'NONE', #124, #156, #168 ) ;
#12 = DIRECTION ( 'NONE',  ( 0.0000000000000000000, -1.000000000000000000, 0.0000000000000000000 ) ) ;
#13 = VERTEX_POINT ( 'NONE', #155 ) ;
#14 = CC_DESIGN_DATE_AND_TIME_ASSIGNMENT ( #6, #4, ( #194 ) ) ;
#15 = CIRCLE ( 'NONE', #165, 2.999999999999999556 ) ;
#16 = PLANE ( 'NONE',  #173 ) ;
#17 = CC_DESIGN_PERSON_AND_ORGANIZATION_ASSIGNMENT ( #111, #88, ( #31 ) ) ;
#18 = DIRECTION ( 'NONE',  ( 3.491481338843133355E-15, -1.227517819005651059E-16, 1.000000000000000000 ) ) ;
#19 = CC_DESIGN_PERSON_AND_ORGANIZATION_ASSIGNMENT ( #5, #36, ( #106 ) ) ;
#20 = PERSON_AND_ORGANIZATION_ROLE ( 'creator' ) ;
#21 = DESIGN_CONTEXT ( 'detailed design', #193, 'design' ) ;
#22 = CARTESIAN_POINT ( 'NONE',  ( 2.793185071074506053E-14, -2.250000000000000444, 7.999999999999998224 ) ) ;
#23 = DIRECTION ( 'NONE',  ( 1.000000000000000000, 0.0000000000000000000, 0.0000000000000000000 ) ) ;
#24 = ORIENTED_EDGE ( 'NONE', *, *, #114, .F. ) ;
#25 = CARTESIAN_POINT ( 'NONE',  ( 0.0000000000000000000, 0.0000000000000000000, 0.0000000000000000000 ) ) ;
#26 = ADVANCED_FACE ( 'NONE', ( #8, #116 ), #183, .T. ) ;
#27 = DIRECTION ( 'NONE',  ( 4.275831445896958607E-31, 1.000000000000000000, 1.224646799147353207E-16 ) ) ;
#28 = APPROVAL ( #54, 'UNSPECIFIED' ) ;
#29 = CARTESIAN_POINT ( 'NONE',  ( -9.643175005850216376E-31, 1.135391725660144413E-32, -2.761915092762713773E-16 ) ) ;
#30 = FACE_OUTER_BOUND ( 'NONE', #164, .T. ) ;
#31 = PRODUCT_DEFINITION_FORMATION_WITH_SPECIFIED_SOURCE ( 'ANY', '', #106, .NOT_KNOWN. ) ;
#32 = LOCAL_TIME ( 11, 35, 9.000000000000000000, #94 ) ;
#33 = DIRECTION ( 'NONE',  ( 0.0000000000000000000, 1.000000000000000000, 0.0000000000000000000 ) ) ;
#34 = CLOSED_SHELL ( 'NONE', ( #69, #99, #42 ) ) ;
#35 = FACE_OUTER_BOUND ( 'NONE', #91, .T. ) ;
#36 = PERSON_AND_ORGANIZATION_ROLE ( 'design_owner' ) ;
#37 = EDGE_LOOP ( 'NONE', ( #167 ) ) ;
#38 = VERTEX_POINT ( 'NONE', #158 ) ;
#39 = ORIENTED_EDGE ( 'NONE', *, *, #107, .T. ) ;
#40 = ORIENTED_EDGE ( 'NONE', *, *, #145, .F. ) ;
#41 = LOCAL_TIME ( 11, 35, 9.000000000000000000, #53 ) ;
#42 = ADVANCED_FACE ( 'NONE', ( #222 ), #70, .F. ) ;
#43 = CARTESIAN_POINT ( 'NONE',  ( 1.990144363140586139E-13, 1.949687717460406406E-32, 57.00000000000000000 ) ) ;
#44 = VERTEX_POINT ( 'NONE', #80 ) ;
#45 = AXIS2_PLACEMENT_3D ( 'NONE', #172, #78, #12 ) ;
#46 = LOCAL_TIME ( 11, 35, 9.000000000000000000, #179 ) ;
#47 = FACE_OUTER_BOUND ( 'NONE', #37, .T. ) ;
#48 = PRODUCT_RELATED_PRODUCT_CATEGORY ( 'detail', '', ( #106 ) ) ;
#49 = AXIS2_PLACEMENT_3D ( 'NONE', #102, #101, #138 ) ;
#50 = PLANE ( 'NONE',  #153 ) ;
#51 = CARTESIAN_POINT ( 'NONE',  ( 1.976178437785213605E-13, -6.931500883174019483E-15, 56.60000000000000142 ) ) ;
#52 =( GEOMETRIC_REPRESENTATION_CONTEXT ( 3 ) GLOBAL_UNCERTAINTY_ASSIGNED_CONTEXT ( ( #83 ) ) GLOBAL_UNIT_ASSIGNED_CONTEXT ( ( #87, #147, #57 ) ) REPRESENTATION_CONTEXT ( 'NONE', 'WORKASPACE' ) );
#53 = COORDINATED_UNIVERSAL_TIME_OFFSET ( 1, 0, .AHEAD. ) ;
#54 = APPROVAL_STATUS ( 'not_yet_approved' ) ;
#55 = APPROVAL_STATUS ( 'not_yet_approved' ) ;
#56 = APPROVAL ( #55, 'UNSPECIFIED' ) ;
#57 =( NAMED_UNIT ( * ) SI_UNIT ( $, .STERADIAN. ) SOLID_ANGLE_UNIT ( ) );
#58 = LOCAL_TIME ( 11, 35, 9.000000000000000000, #59 ) ;
#59 = COORDINATED_UNIVERSAL_TIME_OFFSET ( 1, 0, .AHEAD. ) ;
#60 = ORIENTED_EDGE ( 'NONE', *, *, #212, .F. ) ;
#61 = PERSON ( 'UNSPECIFIED', 'UNSPECIFIED', 'UNSPECIFIED', ('UNSPECIFIED'), ('UNSPECIFIED'), ('UNSPECIFIED') ) ;
#62 = ORIENTED_EDGE ( 'NONE', *, *, #145, .T. ) ;
#63 = DATE_AND_TIME ( #184, #32 ) ;
#64 = FACE_OUTER_BOUND ( 'NONE', #9, .T. ) ;
#65 = DIRECTION ( 'NONE',  ( -3.491481338843133355E-15, 1.224646799147353207E-16, -1.000000000000000000 ) ) ;
#66 = DIRECTION ( 'NONE',  ( 0.0000000000000000000, 1.000000000000000000, 0.0000000000000000000 ) ) ;
#67 = CIRCLE ( 'NONE', #45, 2.249999999999999556 ) ;
#68 = CARTESIAN_POINT ( 'NONE',  ( 2.793185071074506684E-14, 2.249639673992782580E-32, 8.000000000000000000 ) ) ;
#69 = ADVANCED_FACE ( 'NONE', ( #35 ), #50, .T. ) ;
#70 = PLANE ( 'NONE',  #219 ) ;
#71 = APPLICATION_PROTOCOL_DEFINITION ( 'international standard', 'config_control_design', 1994, #193 ) ;
#72 = AXIS2_PLACEMENT_3D ( 'NONE', #43, #186, #27 ) ;
#73 = VERTEX_POINT ( 'NONE', #108 ) ;
#74 = APPROVAL_ROLE ( '' ) ;
#75 = APPROVAL ( #117, 'UNSPECIFIED' ) ;
#76 = APPLICATION_PROTOCOL_DEFINITION ( 'international standard', 'config_control_design', 1994, #185 ) ;
#77 = PERSON_AND_ORGANIZATION ( #61, #146 ) ;
#78 = DIRECTION ( 'NONE',  ( 3.491481338843133355E-15, -1.227517819005651059E-16, 1.000000000000000000 ) ) ;
#79 = VERTEX_POINT ( 'NONE', #202 ) ;
#80 = CARTESIAN_POINT ( 'NONE',  ( 2.793185071074506053E-14, -2.250000000000000444, 7.999999999999998224 ) ) ;
#81 = APPROVAL_PERSON_ORGANIZATION ( #134, #75, #120 ) ;
#82 = ADVANCED_FACE ( 'NONE', ( #30, #3 ), #128, .F. ) ;
#83 = UNCERTAINTY_MEASURE_WITH_UNIT (LENGTH_MEASURE( 1.000000000000000082E-05 ), #87, 'distance_accuracy_value', 'NONE');
#84 = FACE_OUTER_BOUND ( 'NONE', #131, .T. ) ;
#85 = AXIS2_PLACEMENT_3D ( 'NONE', #125, #18, #170 ) ;
#86 = CARTESIAN_POINT ( 'NONE',  ( 1.990144363140586139E-13, -6.980486755139912911E-15, 57.00000000000000000 ) ) ;
#87 =( LENGTH_UNIT ( ) NAMED_UNIT ( * ) SI_UNIT ( .MILLI., .METRE. ) );
#88 = PERSON_AND_ORGANIZATION_ROLE ( 'design_supplier' ) ;
#89 = CALENDAR_DATE ( 2021, 1, 11 ) ;
#90 = CALENDAR_DATE ( 2021, 1, 11 ) ;
#91 = EDGE_LOOP ( 'NONE', ( #62 ) ) ;
#92 = CALENDAR_DATE ( 2021, 1, 11 ) ;
#93 = EDGE_CURVE ( 'NONE', #79, #79, #206, .T. ) ;
#94 = COORDINATED_UNIVERSAL_TIME_OFFSET ( 1, 0, .AHEAD. ) ;
#95 = AXIS2_PLACEMENT_3D ( 'NONE', #86, #105, #220 ) ;
#96 = CONICAL_SURFACE ( 'NONE', #95, 2.600000000000002309, 0.7853981633974516097 ) ;
#97 = EDGE_LOOP ( 'NONE', ( #115 ) ) ;
#98 = EDGE_LOOP ( 'NONE', ( #182 ) ) ;
#99 = ADVANCED_FACE ( 'NONE', ( #47, #84 ), #176, .T. ) ;
#100 = DIRECTION ( 'NONE',  ( -4.285855558155654155E-31, -1.000000000000000000, -1.227517819005651305E-16 ) ) ;
#101 = DIRECTION ( 'NONE',  ( 3.491481338843133355E-15, -1.227517819005651059E-16, 1.000000000000000000 ) ) ;
#102 = CARTESIAN_POINT ( 'NONE',  ( 2.793185071074506053E-14, -1.734723475976807094E-15, 7.999999999999998224 ) ) ;
#103 = LOCAL_TIME ( 11, 35, 9.000000000000000000, #213 ) ;
#104 = DIRECTION ( 'NONE',  ( -4.275831445896958607E-31, -1.000000000000000000, -1.224646799147353207E-16 ) ) ;
#105 = DIRECTION ( 'NONE',  ( -3.491481338843133355E-15, 1.224646799147353207E-16, -1.000000000000000000 ) ) ;
#106 = PRODUCT ( '41808', '41808', '', ( #7 ) ) ;
#107 = EDGE_CURVE ( 'NONE', #44, #44, #215, .T. ) ;
#108 = CARTESIAN_POINT ( 'NONE',  ( -1.928635001170043275E-30, -2.249999999999998668, -5.523830185525427545E-16 ) ) ;
#109 = AXIS2_PLACEMENT_3D ( 'NONE', #51, #65, #154 ) ;
#110 = CC_DESIGN_APPROVAL ( #75, ( #160 ) ) ;
#111 = PERSON_AND_ORGANIZATION ( #61, #146 ) ;
#112 = ORIENTED_EDGE ( 'NONE', *, *, #107, .F. ) ;
#113 = PERSON_AND_ORGANIZATION ( #61, #146 ) ;
#114 = EDGE_CURVE ( 'NONE', #13, #13, #15, .T. ) ;
#115 = ORIENTED_EDGE ( 'NONE', *, *, #141, .T. ) ;
#116 = FACE_OUTER_BOUND ( 'NONE', #197, .T. ) ;
#117 = APPROVAL_STATUS ( 'not_yet_approved' ) ;
#118 = SHAPE_DEFINITION_REPRESENTATION ( #159, #218 ) ;
#119 = DIRECTION ( 'NONE',  ( -4.275831445896958607E-31, -1.000000000000000000, -1.224646799147353207E-16 ) ) ;
#120 = APPROVAL_ROLE ( '' ) ;
#121 = AXIS2_PLACEMENT_3D ( 'NONE', #1, #190, #33 ) ;
#122 = DIRECTION ( 'NONE',  ( -3.491481338843133355E-15, 1.227517819005651059E-16, -1.000000000000000000 ) ) ;
#123 = FACE_OUTER_BOUND ( 'NONE', #133, .T. ) ;
#124 = CARTESIAN_POINT ( 'NONE',  ( 2.793185071074506053E-14, -9.820142552045206497E-16, 7.999999999999998224 ) ) ;
#125 = CARTESIAN_POINT ( 'NONE',  ( -6.413731847436034514E-31, 0.0000000000000000000, -1.836965810494968570E-16 ) ) ;
#126 = DATE_AND_TIME ( #90, #58 ) ;
#127 = PERSON_AND_ORGANIZATION_ROLE ( 'creator' ) ;
#128 = TOROIDAL_SURFACE ( 'NONE', #49, 10.25000000000000000, 8.000000000000000000 ) ;
#129 = CC_DESIGN_APPROVAL ( #56, ( #31 ) ) ;
#130 = DATE_TIME_ROLE ( 'classification_date' ) ;
#131 = EDGE_LOOP ( 'NONE', ( #40 ) ) ;
#132 = MANIFOLD_SOLID_BREP ( 'Corps-Déplacer/Copier1[1]', #203 ) ;
#133 = EDGE_LOOP ( 'NONE', ( #216 ) ) ;
#134 = PERSON_AND_ORGANIZATION ( #61, #146 ) ;
#135 = APPROVAL_PERSON_ORGANIZATION ( #196, #28, #74 ) ;
#136 = CC_DESIGN_PERSON_AND_ORGANIZATION_ASSIGNMENT ( #177, #20, ( #31 ) ) ;
#137 = DIRECTION ( 'NONE',  ( 3.491481338843133355E-15, -1.224646799147353207E-16, 1.000000000000000000 ) ) ;
#138 = DIRECTION ( 'NONE',  ( -4.344058943149099284E-31, -1.000000000000000000, -1.227517819005651059E-16 ) ) ;
#139 = CC_DESIGN_DATE_AND_TIME_ASSIGNMENT ( #161, #130, ( #160 ) ) ;
#140 = FACE_OUTER_BOUND ( 'NONE', #148, .T. ) ;
#141 = EDGE_CURVE ( 'NONE', #38, #38, #150, .T. ) ;
#142 = DIRECTION ( 'NONE',  ( -3.491481338843133355E-15, 1.224646799147353207E-16, -1.000000000000000000 ) ) ;
#143 = DIRECTION ( 'NONE',  ( 4.275831445896959482E-31, 1.000000000000000000, 1.224646799147353207E-16 ) ) ;
#144 = DATE_AND_TIME ( #92, #41 ) ;
#145 = EDGE_CURVE ( 'NONE', #214, #214, #67, .T. ) ;
#146 = ORGANIZATION ( 'UNSPECIFIED', 'UNSPECIFIED', '' ) ;
#147 =( NAMED_UNIT ( * ) PLANE_ANGLE_UNIT ( ) SI_UNIT ( $, .RADIAN. ) );
#148 = EDGE_LOOP ( 'NONE', ( #112 ) ) ;
#149 = EDGE_LOOP ( 'NONE', ( #60 ) ) ;
#150 = CIRCLE ( 'NONE', #121, 2.600000000000002309 ) ;
#151 = CALENDAR_DATE ( 2021, 1, 11 ) ;
#152 = ORIENTED_EDGE ( 'NONE', *, *, #114, .T. ) ;
#153 = AXIS2_PLACEMENT_3D ( 'NONE', #157, #137, #119 ) ;
#154 = DIRECTION ( 'NONE',  ( 0.0000000000000000000, 1.000000000000000000, 0.0000000000000000000 ) ) ;
#155 = CARTESIAN_POINT ( 'NONE',  ( 3.973982173386815915E-14, 2.999999999999997335, 11.38193731461716496 ) ) ;
#156 = DIRECTION ( 'NONE',  ( 3.491481338843133355E-15, -1.227517819005651059E-16, 1.000000000000000000 ) ) ;
#157 = CARTESIAN_POINT ( 'NONE',  ( 2.793185071074506684E-14, 2.249639673992782580E-32, 8.000000000000000000 ) ) ;
#158 = CARTESIAN_POINT ( 'NONE',  ( 1.990144363140586139E-13, 2.599999999999995648, 57.00000000000000000 ) ) ;
#159 = PRODUCT_DEFINITION_SHAPE ( 'NONE', 'NONE',  #194 ) ;
#160 = SECURITY_CLASSIFICATION ( '', '', #211 ) ;
#161 = DATE_AND_TIME ( #89, #46 ) ;
#162 = PERSON_AND_ORGANIZATION_ROLE ( 'classification_officer' ) ;
#163 = CARTESIAN_POINT ( 'NONE',  ( 0.0000000000000000000, 0.0000000000000000000, 0.0000000000000000000 ) ) ;
#164 = EDGE_LOOP ( 'NONE', ( #39 ) ) ;
#165 = AXIS2_PLACEMENT_3D ( 'NONE', #189, #122, #66 ) ;
#166 = ADVANCED_FACE ( 'NONE', ( #140 ), #16, .F. ) ;
#167 = ORIENTED_EDGE ( 'NONE', *, *, #212, .T. ) ;
#168 = DIRECTION ( 'NONE',  ( 0.0000000000000000000, -1.000000000000000000, 0.0000000000000000000 ) ) ;
#169 = DIRECTION ( 'NONE',  ( 3.491481338843133355E-15, -1.227517819005651059E-16, 1.000000000000000000 ) ) ;
#170 = DIRECTION ( 'NONE',  ( -4.285855558155653280E-31, -1.000000000000000000, -1.227517819005651059E-16 ) ) ;
#171 = ADVANCED_FACE ( 'NONE', ( #123, #187 ), #96, .T. ) ;
#172 = CARTESIAN_POINT ( 'NONE',  ( 2.793185071074506053E-14, -9.820142552045206497E-16, 7.999999999999998224 ) ) ;
#173 = AXIS2_PLACEMENT_3D ( 'NONE', #68, #207, #104 ) ;
#174 = CC_DESIGN_PERSON_AND_ORGANIZATION_ASSIGNMENT ( #77, #127, ( #194 ) ) ;
#175 = CC_DESIGN_SECURITY_CLASSIFICATION ( #160, ( #31 ) ) ;
#176 = CYLINDRICAL_SURFACE ( 'NONE', #85, 2.249999999999999112 ) ;
#177 = PERSON_AND_ORGANIZATION ( #61, #146 ) ;
#178 = PERSON_AND_ORGANIZATION ( #61, #146 ) ;
#179 = COORDINATED_UNIVERSAL_TIME_OFFSET ( 1, 0, .AHEAD. ) ;
#180 = ADVANCED_FACE ( 'NONE', ( #64 ), #200, .F. ) ;
#181 = EDGE_LOOP ( 'NONE', ( #152 ) ) ;
#182 = ORIENTED_EDGE ( 'NONE', *, *, #93, .T. ) ;
#183 = CYLINDRICAL_SURFACE ( 'NONE', #223, 2.999999999999999556 ) ;
#184 = CALENDAR_DATE ( 2021, 1, 11 ) ;
#185 = APPLICATION_CONTEXT ( 'configuration controlled 3d designs of mechanical parts and assemblies' ) ;
#186 = DIRECTION ( 'NONE',  ( -3.491481338843133355E-15, 1.224646799147353207E-16, -1.000000000000000000 ) ) ;
#187 = FACE_BOUND ( 'NONE', #97, .T. ) ;
#188 = CIRCLE ( 'NONE', #191, 2.249999999999998668 ) ;
#189 = CARTESIAN_POINT ( 'NONE',  ( 3.973982173386815915E-14, -2.149862307622076787E-15, 11.38193731461716496 ) ) ;
#190 = DIRECTION ( 'NONE',  ( -3.491481338843133355E-15, 1.224646799147353207E-16, -1.000000000000000000 ) ) ;
#191 = AXIS2_PLACEMENT_3D ( 'NONE', #29, #169, #100 ) ;
#192 = APPROVAL_DATE_TIME ( #126, #56 ) ;
#193 = APPLICATION_CONTEXT ( 'configuration controlled 3d designs of mechanical parts and assemblies' ) ;
#194 = PRODUCT_DEFINITION ( 'UNKNOWN', '', #31, #21 ) ;
#195 = DIRECTION ( 'NONE',  ( 0.0000000000000000000, 0.0000000000000000000, 1.000000000000000000 ) ) ;
#196 = PERSON_AND_ORGANIZATION ( #61, #146 ) ;
#197 = EDGE_LOOP ( 'NONE', ( #24 ) ) ;
#198 = CC_DESIGN_APPROVAL ( #28, ( #194 ) ) ;
#199 = APPROVAL_DATE_TIME ( #63, #75 ) ;
#200 = PLANE ( 'NONE',  #72 ) ;
#201 = CC_DESIGN_PERSON_AND_ORGANIZATION_ASSIGNMENT ( #178, #162, ( #160 ) ) ;
#202 = CARTESIAN_POINT ( 'NONE',  ( 1.976178437785213605E-13, 2.999999999999995559, 56.60000000000000142 ) ) ;
#203 = CLOSED_SHELL ( 'NONE', ( #26, #171, #180, #82, #166 ) ) ;
#204 = CARTESIAN_POINT ( 'NONE',  ( -3.206816838010677856E-31, 1.124799933034399755E-32, -9.184688465421452921E-17 ) ) ;
#205 = MANIFOLD_SOLID_BREP ( 'Corps-Déplacer/Copier1[2]', #34 ) ;
#206 = CIRCLE ( 'NONE', #109, 3.000000000000002665 ) ;
#207 = DIRECTION ( 'NONE',  ( 3.491481338843133355E-15, -1.224646799147353207E-16, 1.000000000000000000 ) ) ;
#208 = DIRECTION ( 'NONE',  ( -4.275831445896958607E-31, -1.000000000000000000, -1.224646799147353207E-16 ) ) ;
#209 = APPROVAL_DATE_TIME ( #144, #28 ) ;
#210 = AXIS2_PLACEMENT_3D ( 'NONE', #163, #195, #23 ) ;
#211 = SECURITY_CLASSIFICATION_LEVEL ( 'unclassified' ) ;
#212 = EDGE_CURVE ( 'NONE', #73, #73, #188, .T. ) ;
#213 = COORDINATED_UNIVERSAL_TIME_OFFSET ( 1, 0, .AHEAD. ) ;
#214 = VERTEX_POINT ( 'NONE', #22 ) ;
#215 = CIRCLE ( 'NONE', #11, 2.249999999999999556 ) ;
#216 = ORIENTED_EDGE ( 'NONE', *, *, #93, .F. ) ;
#217 = APPROVAL_ROLE ( '' ) ;
#218 = ADVANCED_BREP_SHAPE_REPRESENTATION ( '41808', ( #132, #205, #210 ), #52 ) ;
#219 = AXIS2_PLACEMENT_3D ( 'NONE', #204, #221, #208 ) ;
#220 = DIRECTION ( 'NONE',  ( 0.0000000000000000000, 1.000000000000000000, 0.0000000000000000000 ) ) ;
#221 = DIRECTION ( 'NONE',  ( 3.491481338843133355E-15, -1.224646799147353207E-16, 1.000000000000000000 ) ) ;
#222 = FACE_OUTER_BOUND ( 'NONE', #149, .T. ) ;
#223 = AXIS2_PLACEMENT_3D ( 'NONE', #25, #142, #143 ) ;
ENDSEC;
END-ISO-10303-21;
