ISO-10303-21;
HEADER;
FILE_DESCRIPTION (( 'STEP AP203' ),
    '1' );
FILE_NAME ('41807.step',
    '2021-11-01T09:16:11',
    ( '' ),
    ( '' ),
    'SwSTEP 2.0',
    'SolidWorks 2019',
    '' );
FILE_SCHEMA (( 'CONFIG_CONTROL_DESIGN' ));
ENDSEC;

DATA;
#1 = CLOSED_SHELL ( 'NONE', ( #64, #116, #50 ) ) ;
#2 = EDGE_LOOP ( 'NONE', ( #169 ) ) ;
#3 = DIRECTION ( 'NONE',  ( 0.0000000000000000000, 1.000000000000000000, 0.0000000000000000000 ) ) ;
#4 = CC_DESIGN_APPROVAL ( #179, ( #109 ) ) ;
#5 = ADVANCED_FACE ( 'NONE', ( #133, #171 ), #203, .T. ) ;
#6 = DIRECTION ( 'NONE',  ( 3.491481338843133355E-15, -1.227517819005651059E-16, 1.000000000000000000 ) ) ;
#7 = CIRCLE ( 'NONE', #39, 2.750000000000000444 ) ;
#8 = FACE_OUTER_BOUND ( 'NONE', #21, .T. ) ;
#9 = DESIGN_CONTEXT ( 'detailed design', #120, 'design' ) ;
#10 = DIRECTION ( 'NONE',  ( 0.0000000000000000000, -1.000000000000000000, 0.0000000000000000000 ) ) ;
#11 = DIRECTION ( 'NONE',  ( -4.275831445896958607E-31, -1.000000000000000000, -1.224646799147353207E-16 ) ) ;
#12 = CC_DESIGN_APPROVAL ( #158, ( #144 ) ) ;
#13 = COORDINATED_UNIVERSAL_TIME_OFFSET ( 1, 0, .AHEAD. ) ;
#14 = PERSON_AND_ORGANIZATION_ROLE ( 'classification_officer' ) ;
#15 = EDGE_CURVE ( 'NONE', #196, #196, #31, .T. ) ;
#16 =( NAMED_UNIT ( * ) PLANE_ANGLE_UNIT ( ) SI_UNIT ( $, .RADIAN. ) );
#17 = EDGE_LOOP ( 'NONE', ( #223 ) ) ;
#18 = APPLICATION_PROTOCOL_DEFINITION ( 'international standard', 'config_control_design', 1994, #110 ) ;
#19 = EDGE_LOOP ( 'NONE', ( #166 ) ) ;
#20 = AXIS2_PLACEMENT_3D ( 'NONE', #59, #6, #88 ) ;
#21 = EDGE_LOOP ( 'NONE', ( #220 ) ) ;
#22 = CARTESIAN_POINT ( 'NONE',  ( 3.491481338843133355E-14, 2.249639673992777927E-32, 10.00000000000000000 ) ) ;
#23 = CARTESIAN_POINT ( 'NONE',  ( 1.969195475107526960E-13, -6.907007947191071191E-15, 56.39999999999999147 ) ) ;
#24 = PRODUCT_DEFINITION ( 'UNKNOWN', '', #144, #9 ) ;
#25 = AXIS2_PLACEMENT_3D ( 'NONE', #73, #123, #194 ) ;
#26 = DIRECTION ( 'NONE',  ( -4.275831445896958607E-31, -1.000000000000000000, -1.224646799147353207E-16 ) ) ;
#27 = CC_DESIGN_APPROVAL ( #176, ( #24 ) ) ;
#28 = FACE_OUTER_BOUND ( 'NONE', #17, .T. ) ;
#29 = UNCERTAINTY_MEASURE_WITH_UNIT (LENGTH_MEASURE( 1.000000000000000082E-05 ), #215, 'distance_accuracy_value', 'NONE');
#30 = VERTEX_POINT ( 'NONE', #92 ) ;
#31 = CIRCLE ( 'NONE', #20, 2.749999999999998668 ) ;
#32 = DIRECTION ( 'NONE',  ( 0.0000000000000000000, 0.0000000000000000000, 1.000000000000000000 ) ) ;
#33 = PERSON_AND_ORGANIZATION_ROLE ( 'creator' ) ;
#34 = APPROVAL_STATUS ( 'not_yet_approved' ) ;
#35 = SECURITY_CLASSIFICATION_LEVEL ( 'unclassified' ) ;
#36 = CC_DESIGN_SECURITY_CLASSIFICATION ( #109, ( #144 ) ) ;
#37 = CARTESIAN_POINT ( 'NONE',  ( 0.0000000000000000000, 0.0000000000000000000, 0.0000000000000000000 ) ) ;
#38 = SHAPE_DEFINITION_REPRESENTATION ( #193, #69 ) ;
#39 = AXIS2_PLACEMENT_3D ( 'NONE', #212, #199, #10 ) ;
#40 = EDGE_LOOP ( 'NONE', ( #117 ) ) ;
#41 = DIRECTION ( 'NONE',  ( -3.491481338843133355E-15, 1.224646799147353207E-16, -1.000000000000000000 ) ) ;
#42 = DIRECTION ( 'NONE',  ( -3.491481338843133355E-15, 1.224646799147353207E-16, -1.000000000000000000 ) ) ;
#43 = DIRECTION ( 'NONE',  ( 3.491481338843133355E-15, -1.224646799147353207E-16, 1.000000000000000000 ) ) ;
#44 =( GEOMETRIC_REPRESENTATION_CONTEXT ( 3 ) GLOBAL_UNCERTAINTY_ASSIGNED_CONTEXT ( ( #29 ) ) GLOBAL_UNIT_ASSIGNED_CONTEXT ( ( #215, #16, #66 ) ) REPRESENTATION_CONTEXT ( 'NONE', 'WORKASPACE' ) );
#45 = FACE_OUTER_BOUND ( 'NONE', #2, .T. ) ;
#46 = DIRECTION ( 'NONE',  ( 4.275831445896958607E-31, 1.000000000000000000, 1.224646799147353207E-16 ) ) ;
#47 = CARTESIAN_POINT ( 'NONE',  ( 3.491481338843132724E-14, -2.750000000000001776, 9.999999999999998224 ) ) ;
#48 = TOROIDAL_SURFACE ( 'NONE', #25, 10.75000000000000000, 8.000000000000000000 ) ;
#49 = CALENDAR_DATE ( 2021, 1, 11 ) ;
#50 = ADVANCED_FACE ( 'NONE', ( #61 ), #155, .F. ) ;
#51 = PERSON_AND_ORGANIZATION_ROLE ( 'design_owner' ) ;
#52 = APPLICATION_PROTOCOL_DEFINITION ( 'international standard', 'config_control_design', 1994, #120 ) ;
#53 = PERSON_AND_ORGANIZATION ( #157, #154 ) ;
#54 = COORDINATED_UNIVERSAL_TIME_OFFSET ( 1, 0, .AHEAD. ) ;
#55 = APPROVAL_PERSON_ORGANIZATION ( #146, #158, #95 ) ;
#56 = DIRECTION ( 'NONE',  ( -4.275831445896958607E-31, -1.000000000000000000, -1.224646799147353207E-16 ) ) ;
#57 = EDGE_CURVE ( 'NONE', #30, #30, #74, .T. ) ;
#58 = DIRECTION ( 'NONE',  ( -4.285855558155652404E-31, -1.000000000000000000, -1.227517819005651059E-16 ) ) ;
#59 = CARTESIAN_POINT ( 'NONE',  ( -1.178610278492804126E-30, 1.888791723648339442E-32, -3.375674002265538562E-16 ) ) ;
#60 = CC_DESIGN_PERSON_AND_ORGANIZATION_ASSIGNMENT ( #130, #51, ( #127 ) ) ;
#61 = FACE_OUTER_BOUND ( 'NONE', #187, .T. ) ;
#62 = CARTESIAN_POINT ( 'NONE',  ( 1.969195475107526960E-13, 2.999999999999989786, 56.39999999999999147 ) ) ;
#63 = CALENDAR_DATE ( 2021, 1, 11 ) ;
#64 = ADVANCED_FACE ( 'NONE', ( #28 ), #107, .T. ) ;
#65 = AXIS2_PLACEMENT_3D ( 'NONE', #113, #32, #181 ) ;
#66 =( NAMED_UNIT ( * ) SI_UNIT ( $, .STERADIAN. ) SOLID_ANGLE_UNIT ( ) );
#67 = EDGE_LOOP ( 'NONE', ( #149 ) ) ;
#68 = COORDINATED_UNIVERSAL_TIME_OFFSET ( 1, 0, .AHEAD. ) ;
#69 = ADVANCED_BREP_SHAPE_REPRESENTATION ( '41807', ( #190, #186, #65 ), #44 ) ;
#70 = EDGE_LOOP ( 'NONE', ( #101 ) ) ;
#71 = CARTESIAN_POINT ( 'NONE',  ( 1.990144363140586139E-13, 1.799711739194216266E-32, 57.00000000000000000 ) ) ;
#72 = LOCAL_TIME ( 10, 16, 11.00000000000000000, #68 ) ;
#73 = CARTESIAN_POINT ( 'NONE',  ( 3.491481338843132724E-14, -1.734723475976807094E-15, 9.999999999999998224 ) ) ;
#74 = CIRCLE ( 'NONE', #87, 2.399999999999996803 ) ;
#75 = FACE_OUTER_BOUND ( 'NONE', #82, .T. ) ;
#76 = DIRECTION ( 'NONE',  ( 3.491481338843133355E-15, -1.224646799147353207E-16, 1.000000000000000000 ) ) ;
#77 = CARTESIAN_POINT ( 'NONE',  ( 4.184300688578256152E-14, 2.999999999999992006, 11.98431348329841484 ) ) ;
#78 = PERSON_AND_ORGANIZATION ( #157, #154 ) ;
#79 = CALENDAR_DATE ( 2021, 1, 11 ) ;
#80 = CC_DESIGN_PERSON_AND_ORGANIZATION_ASSIGNMENT ( #53, #163, ( #144 ) ) ;
#81 = DATE_TIME_ROLE ( 'classification_date' ) ;
#82 = EDGE_LOOP ( 'NONE', ( #185 ) ) ;
#83 = CALENDAR_DATE ( 2021, 1, 11 ) ;
#84 = ORIENTED_EDGE ( 'NONE', *, *, #15, .F. ) ;
#85 = CARTESIAN_POINT ( 'NONE',  ( 1.990144363140586139E-13, -6.980486755139912911E-15, 57.00000000000000000 ) ) ;
#86 = FACE_OUTER_BOUND ( 'NONE', #67, .T. ) ;
#87 = AXIS2_PLACEMENT_3D ( 'NONE', #174, #207, #214 ) ;
#88 = DIRECTION ( 'NONE',  ( -4.285855558155652404E-31, -1.000000000000000000, -1.227517819005651059E-16 ) ) ;
#89 = AXIS2_PLACEMENT_3D ( 'NONE', #37, #131, #99 ) ;
#90 = AXIS2_PLACEMENT_3D ( 'NONE', #22, #43, #11 ) ;
#91 = FACE_BOUND ( 'NONE', #102, .T. ) ;
#92 = CARTESIAN_POINT ( 'NONE',  ( 1.990144363140586139E-13, 2.399999999999989697, 57.00000000000000000 ) ) ;
#93 = APPROVAL_STATUS ( 'not_yet_approved' ) ;
#94 = APPROVAL_DATE_TIME ( #217, #176 ) ;
#95 = APPROVAL_ROLE ( '' ) ;
#96 = EDGE_CURVE ( 'NONE', #159, #159, #136, .T. ) ;
#97 = LOCAL_TIME ( 10, 16, 11.00000000000000000, #54 ) ;
#98 = PERSON_AND_ORGANIZATION ( #157, #154 ) ;
#99 = DIRECTION ( 'NONE',  ( 4.275831445896958607E-31, 1.000000000000000000, 1.224646799147353454E-16 ) ) ;
#100 = APPROVAL_ROLE ( '' ) ;
#101 = ORIENTED_EDGE ( 'NONE', *, *, #184, .T. ) ;
#102 = EDGE_LOOP ( 'NONE', ( #134 ) ) ;
#103 = CONICAL_SURFACE ( 'NONE', #122, 2.399999999999996803, 0.7853981633974396193 ) ;
#104 = ORIENTED_EDGE ( 'NONE', *, *, #96, .F. ) ;
#105 = CARTESIAN_POINT ( 'NONE',  ( 3.491481338843133355E-14, 2.249639673992777927E-32, 10.00000000000000000 ) ) ;
#106 = CC_DESIGN_PERSON_AND_ORGANIZATION_ASSIGNMENT ( #98, #14, ( #109 ) ) ;
#107 = PLANE ( 'NONE',  #189 ) ;
#108 = DIRECTION ( 'NONE',  ( -3.491481338843133355E-15, 1.227517819005651059E-16, -1.000000000000000000 ) ) ;
#109 = SECURITY_CLASSIFICATION ( '', '', #35 ) ;
#110 = APPLICATION_CONTEXT ( 'configuration controlled 3d designs of mechanical parts and assemblies' ) ;
#111 = CARTESIAN_POINT ( 'NONE',  ( 4.184300688578256152E-14, -1.978301491901004847E-15, 11.98431348329841484 ) ) ;
#112 = DIRECTION ( 'NONE',  ( 3.491481338843133355E-15, -1.227517819005651059E-16, 1.000000000000000000 ) ) ;
#113 = CARTESIAN_POINT ( 'NONE',  ( 0.0000000000000000000, 0.0000000000000000000, 0.0000000000000000000 ) ) ;
#114 = CALENDAR_DATE ( 2021, 1, 11 ) ;
#115 = DATE_AND_TIME ( #63, #141 ) ;
#116 = ADVANCED_FACE ( 'NONE', ( #45, #152 ), #172, .T. ) ;
#117 = ORIENTED_EDGE ( 'NONE', *, *, #96, .T. ) ;
#118 = LOCAL_TIME ( 10, 16, 11.00000000000000000, #132 ) ;
#119 = CARTESIAN_POINT ( 'NONE',  ( -6.413731847436034514E-31, 0.0000000000000000000, -1.836965810494968570E-16 ) ) ;
#120 = APPLICATION_CONTEXT ( 'configuration controlled 3d designs of mechanical parts and assemblies' ) ;
#121 = ADVANCED_FACE ( 'NONE', ( #86 ), #124, .F. ) ;
#122 = AXIS2_PLACEMENT_3D ( 'NONE', #85, #151, #3 ) ;
#123 = DIRECTION ( 'NONE',  ( 3.491481338843133355E-15, -1.227517819005651059E-16, 1.000000000000000000 ) ) ;
#124 = PLANE ( 'NONE',  #90 ) ;
#125 = CARTESIAN_POINT ( 'NONE',  ( -2.357220556985607902E-30, -2.749999999999998668, -6.751348004531077125E-16 ) ) ;
#126 = DIRECTION ( 'NONE',  ( 0.0000000000000000000, 1.000000000000000000, 0.0000000000000000000 ) ) ;
#127 = PRODUCT ( '41807', '41807', '', ( #200 ) ) ;
#128 = DATE_TIME_ROLE ( 'creation_date' ) ;
#129 = CLOSED_SHELL ( 'NONE', ( #5, #168, #221, #170, #121 ) ) ;
#130 = PERSON_AND_ORGANIZATION ( #157, #154 ) ;
#131 = DIRECTION ( 'NONE',  ( -3.491481338843133355E-15, 1.224646799147353207E-16, -1.000000000000000000 ) ) ;
#132 = COORDINATED_UNIVERSAL_TIME_OFFSET ( 1, 0, .AHEAD. ) ;
#133 = FACE_OUTER_BOUND ( 'NONE', #70, .T. ) ;
#134 = ORIENTED_EDGE ( 'NONE', *, *, #57, .T. ) ;
#135 = DIRECTION ( 'NONE',  ( 3.491481338843133355E-15, -1.224646799147353207E-16, 1.000000000000000000 ) ) ;
#136 = CIRCLE ( 'NONE', #183, 2.999999999999993783 ) ;
#137 = FACE_OUTER_BOUND ( 'NONE', #40, .T. ) ;
#138 = CARTESIAN_POINT ( 'NONE',  ( 3.491481338843132724E-14, -1.227517819005650763E-15, 9.999999999999998224 ) ) ;
#139 = PLANE ( 'NONE',  #192 ) ;
#140 = VERTEX_POINT ( 'NONE', #62 ) ;
#141 = LOCAL_TIME ( 10, 16, 11.00000000000000000, #202 ) ;
#142 = APPROVAL_STATUS ( 'not_yet_approved' ) ;
#143 = VERTEX_POINT ( 'NONE', #162 ) ;
#144 = PRODUCT_DEFINITION_FORMATION_WITH_SPECIFIED_SOURCE ( 'ANY', '', #127, .NOT_KNOWN. ) ;
#145 = EDGE_LOOP ( 'NONE', ( #104 ) ) ;
#146 = PERSON_AND_ORGANIZATION ( #157, #154 ) ;
#147 = ORIENTED_EDGE ( 'NONE', *, *, #210, .F. ) ;
#148 = CC_DESIGN_PERSON_AND_ORGANIZATION_ASSIGNMENT ( #160, #164, ( #24 ) ) ;
#149 = ORIENTED_EDGE ( 'NONE', *, *, #201, .F. ) ;
#150 = DATE_AND_TIME ( #83, #97 ) ;
#151 = DIRECTION ( 'NONE',  ( -3.491481338843133355E-15, 1.224646799147353207E-16, -1.000000000000000000 ) ) ;
#152 = FACE_OUTER_BOUND ( 'NONE', #205, .T. ) ;
#153 = PRODUCT_RELATED_PRODUCT_CATEGORY ( 'detail', '', ( #127 ) ) ;
#154 = ORGANIZATION ( 'UNSPECIFIED', 'UNSPECIFIED', '' ) ;
#155 = PLANE ( 'NONE',  #165 ) ;
#156 = DIRECTION ( 'NONE',  ( 3.491481338843133355E-15, -1.227517819005651059E-16, 1.000000000000000000 ) ) ;
#157 = PERSON ( 'UNSPECIFIED', 'UNSPECIFIED', 'UNSPECIFIED', ('UNSPECIFIED'), ('UNSPECIFIED'), ('UNSPECIFIED') ) ;
#158 = APPROVAL ( #34, 'UNSPECIFIED' ) ;
#159 = VERTEX_POINT ( 'NONE', #77 ) ;
#160 = PERSON_AND_ORGANIZATION ( #157, #154 ) ;
#161 = AXIS2_PLACEMENT_3D ( 'NONE', #138, #156, #211 ) ;
#162 = CARTESIAN_POINT ( 'NONE',  ( 3.491481338843132724E-14, -2.750000000000001776, 9.999999999999998224 ) ) ;
#163 = PERSON_AND_ORGANIZATION_ROLE ( 'design_supplier' ) ;
#164 = PERSON_AND_ORGANIZATION_ROLE ( 'creator' ) ;
#165 = AXIS2_PLACEMENT_3D ( 'NONE', #198, #135, #56 ) ;
#166 = ORIENTED_EDGE ( 'NONE', *, *, #57, .F. ) ;
#167 = DATE_AND_TIME ( #79, #197 ) ;
#168 = ADVANCED_FACE ( 'NONE', ( #8, #91 ), #103, .T. ) ;
#169 = ORIENTED_EDGE ( 'NONE', *, *, #15, .T. ) ;
#170 = ADVANCED_FACE ( 'NONE', ( #75, #137 ), #48, .F. ) ;
#171 = FACE_OUTER_BOUND ( 'NONE', #145, .T. ) ;
#172 = CYLINDRICAL_SURFACE ( 'NONE', #175, 2.749999999999999556 ) ;
#173 = APPROVAL_PERSON_ORGANIZATION ( #78, #179, #100 ) ;
#174 = CARTESIAN_POINT ( 'NONE',  ( 1.990144363140586139E-13, -6.980486755139912911E-15, 57.00000000000000000 ) ) ;
#175 = AXIS2_PLACEMENT_3D ( 'NONE', #119, #112, #58 ) ;
#176 = APPROVAL ( #93, 'UNSPECIFIED' ) ;
#177 = DIRECTION ( 'NONE',  ( 0.0000000000000000000, 1.000000000000000000, 0.0000000000000000000 ) ) ;
#178 = APPROVAL_ROLE ( '' ) ;
#179 = APPROVAL ( #142, 'UNSPECIFIED' ) ;
#180 = APPROVAL_DATE_TIME ( #204, #158 ) ;
#181 = DIRECTION ( 'NONE',  ( 1.000000000000000000, 0.0000000000000000000, 0.0000000000000000000 ) ) ;
#182 = PERSON_AND_ORGANIZATION ( #157, #154 ) ;
#183 = AXIS2_PLACEMENT_3D ( 'NONE', #111, #108, #126 ) ;
#184 = EDGE_CURVE ( 'NONE', #140, #140, #219, .T. ) ;
#185 = ORIENTED_EDGE ( 'NONE', *, *, #201, .T. ) ;
#186 = MANIFOLD_SOLID_BREP ( 'Corps-Déplacer/Copier1[2]', #1 ) ;
#187 = EDGE_LOOP ( 'NONE', ( #84 ) ) ;
#188 = AXIS2_PLACEMENT_3D ( 'NONE', #23, #42, #177 ) ;
#189 = AXIS2_PLACEMENT_3D ( 'NONE', #105, #76, #26 ) ;
#190 = MANIFOLD_SOLID_BREP ( 'Corps-Déplacer/Copier1[1]', #129 ) ;
#191 = FACE_OUTER_BOUND ( 'NONE', #19, .T. ) ;
#192 = AXIS2_PLACEMENT_3D ( 'NONE', #71, #41, #46 ) ;
#193 = PRODUCT_DEFINITION_SHAPE ( 'NONE', 'NONE',  #24 ) ;
#194 = DIRECTION ( 'NONE',  ( -4.342506852882607869E-31, -1.000000000000000000, -1.227517819005651059E-16 ) ) ;
#195 = CC_DESIGN_DATE_AND_TIME_ASSIGNMENT ( #115, #128, ( #24 ) ) ;
#196 = VERTEX_POINT ( 'NONE', #125 ) ;
#197 = LOCAL_TIME ( 10, 16, 11.00000000000000000, #13 ) ;
#198 = CARTESIAN_POINT ( 'NONE',  ( -1.282749722297852494E-30, 4.499280360008248009E-32, -3.673941223821286377E-16 ) ) ;
#199 = DIRECTION ( 'NONE',  ( 3.491481338843133355E-15, -1.227517819005651059E-16, 1.000000000000000000 ) ) ;
#200 = MECHANICAL_CONTEXT ( 'NONE', #110, 'mechanical' ) ;
#201 = EDGE_CURVE ( 'NONE', #218, #218, #213, .T. ) ;
#202 = COORDINATED_UNIVERSAL_TIME_OFFSET ( 1, 0, .AHEAD. ) ;
#203 = CYLINDRICAL_SURFACE ( 'NONE', #89, 2.999999999999993783 ) ;
#204 = DATE_AND_TIME ( #49, #72 ) ;
#205 = EDGE_LOOP ( 'NONE', ( #147 ) ) ;
#206 = CC_DESIGN_PERSON_AND_ORGANIZATION_ASSIGNMENT ( #182, #33, ( #144 ) ) ;
#207 = DIRECTION ( 'NONE',  ( -3.491481338843133355E-15, 1.224646799147353207E-16, -1.000000000000000000 ) ) ;
#208 = APPROVAL_PERSON_ORGANIZATION ( #222, #176, #178 ) ;
#209 = APPROVAL_DATE_TIME ( #150, #179 ) ;
#210 = EDGE_CURVE ( 'NONE', #143, #143, #7, .T. ) ;
#211 = DIRECTION ( 'NONE',  ( 0.0000000000000000000, -1.000000000000000000, 0.0000000000000000000 ) ) ;
#212 = CARTESIAN_POINT ( 'NONE',  ( 3.491481338843132724E-14, -1.227517819005650763E-15, 9.999999999999998224 ) ) ;
#213 = CIRCLE ( 'NONE', #161, 2.750000000000000444 ) ;
#214 = DIRECTION ( 'NONE',  ( 0.0000000000000000000, 1.000000000000000000, 0.0000000000000000000 ) ) ;
#215 =( LENGTH_UNIT ( ) NAMED_UNIT ( * ) SI_UNIT ( .MILLI., .METRE. ) );
#216 = CC_DESIGN_DATE_AND_TIME_ASSIGNMENT ( #167, #81, ( #109 ) ) ;
#217 = DATE_AND_TIME ( #114, #118 ) ;
#218 = VERTEX_POINT ( 'NONE', #47 ) ;
#219 = CIRCLE ( 'NONE', #188, 2.999999999999996447 ) ;
#220 = ORIENTED_EDGE ( 'NONE', *, *, #184, .F. ) ;
#221 = ADVANCED_FACE ( 'NONE', ( #191 ), #139, .F. ) ;
#222 = PERSON_AND_ORGANIZATION ( #157, #154 ) ;
#223 = ORIENTED_EDGE ( 'NONE', *, *, #210, .T. ) ;
ENDSEC;
END-ISO-10303-21;
