ISO-10303-21;
HEADER;
FILE_DESCRIPTION (( 'STEP AP203' ),
    '1' );
FILE_NAME ('41806.step',
    '2021-11-01T09:16:10',
    ( '' ),
    ( '' ),
    'SwSTEP 2.0',
    'SolidWorks 2019',
    '' );
FILE_SCHEMA (( 'CONFIG_CONTROL_DESIGN' ));
ENDSEC;

DATA;
#1 = PERSON_AND_ORGANIZATION ( #70, #27 ) ;
#2 = DIRECTION ( 'NONE',  ( -3.491481338843133355E-15, 1.224646799147353207E-16, -1.000000000000000000 ) ) ;
#3 = ADVANCED_FACE ( 'NONE', ( #6 ), #4, .T. ) ;
#4 = PLANE ( 'NONE',  #155 ) ;
#5 = COORDINATED_UNIVERSAL_TIME_OFFSET ( 1, 0, .AHEAD. ) ;
#6 = FACE_OUTER_BOUND ( 'NONE', #102, .T. ) ;
#7 = EDGE_LOOP ( 'NONE', ( #167 ) ) ;
#8 = CARTESIAN_POINT ( 'NONE',  ( -1.285756667446692656E-30, -1.499999999999996225, -3.682553457016943315E-16 ) ) ;
#9 = APPROVAL_STATUS ( 'not_yet_approved' ) ;
#10 = FACE_OUTER_BOUND ( 'NONE', #180, .T. ) ;
#11 = CARTESIAN_POINT ( 'NONE',  ( -1.282749722297852494E-30, 4.499280360008248009E-32, -3.673941223821286377E-16 ) ) ;
#12 = AXIS2_PLACEMENT_3D ( 'NONE', #206, #202, #29 ) ;
#13 = DIRECTION ( 'NONE',  ( 0.0000000000000000000, -1.000000000000000000, 0.0000000000000000000 ) ) ;
#14 = FACE_OUTER_BOUND ( 'NONE', #159, .T. ) ;
#15 = APPROVAL_DATE_TIME ( #172, #133 ) ;
#16 = CARTESIAN_POINT ( 'NONE',  ( 1.969195475107526960E-13, -6.907007947191071191E-15, 56.39999999999999147 ) ) ;
#17 = CC_DESIGN_PERSON_AND_ORGANIZATION_ASSIGNMENT ( #168, #147, ( #165 ) ) ;
#18 = COORDINATED_UNIVERSAL_TIME_OFFSET ( 1, 0, .AHEAD. ) ;
#19 =( LENGTH_UNIT ( ) NAMED_UNIT ( * ) SI_UNIT ( .MILLI., .METRE. ) );
#20 = VERTEX_POINT ( 'NONE', #123 ) ;
#21 = EDGE_LOOP ( 'NONE', ( #217 ) ) ;
#22 = APPROVAL_DATE_TIME ( #187, #72 ) ;
#23 = EDGE_LOOP ( 'NONE', ( #140 ) ) ;
#24 =( NAMED_UNIT ( * ) SI_UNIT ( $, .STERADIAN. ) SOLID_ANGLE_UNIT ( ) );
#25 = CARTESIAN_POINT ( 'NONE',  ( 2.444036937190193033E-14, 2.249639673992778475E-32, 6.999999999999999112 ) ) ;
#26 = DIRECTION ( 'NONE',  ( -3.491481338843133355E-15, 1.227517819005651059E-16, -1.000000000000000000 ) ) ;
#27 = ORGANIZATION ( 'UNSPECIFIED', 'UNSPECIFIED', '' ) ;
#28 = SHAPE_DEFINITION_REPRESENTATION ( #213, #33 ) ;
#29 = DIRECTION ( 'NONE',  ( 0.0000000000000000000, -1.000000000000000000, 0.0000000000000000000 ) ) ;
#30 = DIRECTION ( 'NONE',  ( -4.275831445896958607E-31, -1.000000000000000000, -1.224646799147353207E-16 ) ) ;
#31 = AXIS2_PLACEMENT_3D ( 'NONE', #205, #115, #192 ) ;
#32 = APPLICATION_CONTEXT ( 'configuration controlled 3d designs of mechanical parts and assemblies' ) ;
#33 = ADVANCED_BREP_SHAPE_REPRESENTATION ( '41806', ( #193, #105, #209 ), #119 ) ;
#34 = VERTEX_POINT ( 'NONE', #57 ) ;
#35 = EDGE_CURVE ( 'NONE', #49, #49, #158, .T. ) ;
#36 = APPROVAL_ROLE ( '' ) ;
#37 = DATE_AND_TIME ( #166, #43 ) ;
#38 = CC_DESIGN_SECURITY_CLASSIFICATION ( #220, ( #165 ) ) ;
#39 = CARTESIAN_POINT ( 'NONE',  ( 2.444036937190193033E-14, -1.499999999999996225, 6.999999999999999112 ) ) ;
#40 = DIRECTION ( 'NONE',  ( 0.0000000000000000000, 1.000000000000000000, 0.0000000000000000000 ) ) ;
#41 = DIRECTION ( 'NONE',  ( 3.491481338843133355E-15, -1.224646799147353207E-16, 1.000000000000000000 ) ) ;
#42 = FACE_OUTER_BOUND ( 'NONE', #7, .T. ) ;
#43 = LOCAL_TIME ( 10, 16, 10.00000000000000000, #5 ) ;
#44 = DIRECTION ( 'NONE',  ( -4.275831445896958607E-31, -1.000000000000000000, -1.224646799147353207E-16 ) ) ;
#45 = SECURITY_CLASSIFICATION_LEVEL ( 'unclassified' ) ;
#46 = CONICAL_SURFACE ( 'NONE', #179, 2.399999999999996803, 0.7853981633974396193 ) ;
#47 = AXIS2_PLACEMENT_3D ( 'NONE', #11, #175, #44 ) ;
#48 = EDGE_LOOP ( 'NONE', ( #83 ) ) ;
#49 = VERTEX_POINT ( 'NONE', #184 ) ;
#50 = ADVANCED_FACE ( 'NONE', ( #14, #62 ), #46, .T. ) ;
#51 =( NAMED_UNIT ( * ) PLANE_ANGLE_UNIT ( ) SI_UNIT ( $, .RADIAN. ) );
#52 = APPROVAL_ROLE ( '' ) ;
#53 = ORIENTED_EDGE ( 'NONE', *, *, #201, .F. ) ;
#54 = CALENDAR_DATE ( 2021, 1, 11 ) ;
#55 = EDGE_LOOP ( 'NONE', ( #183 ) ) ;
#56 = AXIS2_PLACEMENT_3D ( 'NONE', #146, #125, #13 ) ;
#57 = CARTESIAN_POINT ( 'NONE',  ( 1.990144363140586139E-13, 2.399999999999989697, 57.00000000000000000 ) ) ;
#58 = AXIS2_PLACEMENT_3D ( 'NONE', #16, #97, #63 ) ;
#59 = FACE_OUTER_BOUND ( 'NONE', #55, .T. ) ;
#60 = COORDINATED_UNIVERSAL_TIME_OFFSET ( 1, 0, .AHEAD. ) ;
#61 = DIRECTION ( 'NONE',  ( 0.0000000000000000000, 1.000000000000000000, 0.0000000000000000000 ) ) ;
#62 = FACE_BOUND ( 'NONE', #23, .T. ) ;
#63 = DIRECTION ( 'NONE',  ( 0.0000000000000000000, 1.000000000000000000, 0.0000000000000000000 ) ) ;
#64 = LOCAL_TIME ( 10, 16, 10.00000000000000000, #60 ) ;
#65 = COORDINATED_UNIVERSAL_TIME_OFFSET ( 1, 0, .AHEAD. ) ;
#66 = LOCAL_TIME ( 10, 16, 10.00000000000000000, #65 ) ;
#67 = MECHANICAL_CONTEXT ( 'NONE', #138, 'mechanical' ) ;
#68 = EDGE_LOOP ( 'NONE', ( #162 ) ) ;
#69 = APPLICATION_PROTOCOL_DEFINITION ( 'international standard', 'config_control_design', 1994, #138 ) ;
#70 = PERSON ( 'UNSPECIFIED', 'UNSPECIFIED', 'UNSPECIFIED', ('UNSPECIFIED'), ('UNSPECIFIED'), ('UNSPECIFIED') ) ;
#71 = CARTESIAN_POINT ( 'NONE',  ( 2.444036937190193033E-14, 2.249639673992778475E-32, 6.999999999999999112 ) ) ;
#72 = APPROVAL ( #9, 'UNSPECIFIED' ) ;
#73 = CARTESIAN_POINT ( 'NONE',  ( 1.990144363140586139E-13, 1.799711739194216266E-32, 57.00000000000000000 ) ) ;
#74 = AXIS2_PLACEMENT_3D ( 'NONE', #169, #194, #177 ) ;
#75 = CYLINDRICAL_SURFACE ( 'NONE', #31, 2.999999999999993783 ) ;
#76 = PERSON_AND_ORGANIZATION_ROLE ( 'classification_officer' ) ;
#77 = EDGE_CURVE ( 'NONE', #20, #20, #185, .T. ) ;
#78 = DIRECTION ( 'NONE',  ( 4.275831445896958607E-31, 1.000000000000000000, 1.224646799147353207E-16 ) ) ;
#79 = DIRECTION ( 'NONE',  ( 3.491481338843133355E-15, -1.227517819005651059E-16, 1.000000000000000000 ) ) ;
#80 = AXIS2_PLACEMENT_3D ( 'NONE', #151, #26, #148 ) ;
#81 = CC_DESIGN_DATE_AND_TIME_ASSIGNMENT ( #116, #207, ( #220 ) ) ;
#82 = LOCAL_TIME ( 10, 16, 10.00000000000000000, #18 ) ;
#83 = ORIENTED_EDGE ( 'NONE', *, *, #210, .F. ) ;
#84 = DESIGN_CONTEXT ( 'detailed design', #32, 'design' ) ;
#85 = DATE_AND_TIME ( #54, #82 ) ;
#86 = EDGE_LOOP ( 'NONE', ( #199 ) ) ;
#87 = ORIENTED_EDGE ( 'NONE', *, *, #204, .F. ) ;
#88 = CLOSED_SHELL ( 'NONE', ( #3, #143, #221 ) ) ;
#89 = PERSON_AND_ORGANIZATION ( #70, #27 ) ;
#90 = DIRECTION ( 'NONE',  ( -4.275831445896958607E-31, -1.000000000000000000, -1.224646799147353207E-16 ) ) ;
#91 = APPROVAL ( #216, 'UNSPECIFIED' ) ;
#92 = VERTEX_POINT ( 'NONE', #39 ) ;
#93 = DIRECTION ( 'NONE',  ( 3.491481338843133355E-15, -1.227517819005651059E-16, 1.000000000000000000 ) ) ;
#94 = CC_DESIGN_PERSON_AND_ORGANIZATION_ASSIGNMENT ( #89, #160, ( #161 ) ) ;
#95 = CIRCLE ( 'NONE', #101, 1.499999999999996225 ) ;
#96 = FACE_OUTER_BOUND ( 'NONE', #86, .T. ) ;
#97 = DIRECTION ( 'NONE',  ( -3.491481338843133355E-15, 1.224646799147353207E-16, -1.000000000000000000 ) ) ;
#98 = FACE_OUTER_BOUND ( 'NONE', #21, .T. ) ;
#99 = PRODUCT_RELATED_PRODUCT_CATEGORY ( 'detail', '', ( #176 ) ) ;
#100 = ADVANCED_FACE ( 'NONE', ( #190 ), #219, .F. ) ;
#101 = AXIS2_PLACEMENT_3D ( 'NONE', #189, #93, #222 ) ;
#102 = EDGE_LOOP ( 'NONE', ( #164 ) ) ;
#103 = CIRCLE ( 'NONE', #12, 1.499999999999995337 ) ;
#104 = PERSON_AND_ORGANIZATION ( #70, #27 ) ;
#105 = MANIFOLD_SOLID_BREP ( 'Corps-Déplacer/Copier1[2]', #88 ) ;
#106 = VERTEX_POINT ( 'NONE', #111 ) ;
#107 = ADVANCED_FACE ( 'NONE', ( #98, #96 ), #108, .F. ) ;
#108 = TOROIDAL_SURFACE ( 'NONE', #74, 9.499999999999994671, 8.000000000000000000 ) ;
#109 = APPROVAL_PERSON_ORGANIZATION ( #163, #91, #36 ) ;
#110 = DATE_TIME_ROLE ( 'creation_date' ) ;
#111 = CARTESIAN_POINT ( 'NONE',  ( 1.969195475107526960E-13, 2.999999999999989786, 56.39999999999999147 ) ) ;
#112 = FACE_OUTER_BOUND ( 'NONE', #68, .T. ) ;
#113 = CARTESIAN_POINT ( 'NONE',  ( 1.990144363140586139E-13, -6.980486755139912911E-15, 57.00000000000000000 ) ) ;
#114 = AXIS2_PLACEMENT_3D ( 'NONE', #127, #203, #40 ) ;
#115 = DIRECTION ( 'NONE',  ( -3.491481338843133355E-15, 1.224646799147353207E-16, -1.000000000000000000 ) ) ;
#116 = DATE_AND_TIME ( #135, #64 ) ;
#117 = CC_DESIGN_PERSON_AND_ORGANIZATION_ASSIGNMENT ( #131, #152, ( #165 ) ) ;
#118 = CLOSED_SHELL ( 'NONE', ( #181, #50, #137, #107, #100 ) ) ;
#119 =( GEOMETRIC_REPRESENTATION_CONTEXT ( 3 ) GLOBAL_UNCERTAINTY_ASSIGNED_CONTEXT ( ( #122 ) ) GLOBAL_UNIT_ASSIGNED_CONTEXT ( ( #19, #51, #24 ) ) REPRESENTATION_CONTEXT ( 'NONE', 'WORKASPACE' ) );
#120 = ORIENTED_EDGE ( 'NONE', *, *, #204, .T. ) ;
#121 = CARTESIAN_POINT ( 'NONE',  ( 0.0000000000000000000, 0.0000000000000000000, 0.0000000000000000000 ) ) ;
#122 = UNCERTAINTY_MEASURE_WITH_UNIT (LENGTH_MEASURE( 1.000000000000000082E-05 ), #19, 'distance_accuracy_value', 'NONE');
#123 = CARTESIAN_POINT ( 'NONE',  ( 4.072355432398988773E-14, 2.999999999999993339, 11.66368952654440250 ) ) ;
#124 = DIRECTION ( 'NONE',  ( 3.491481338843133355E-15, -1.224646799147353207E-16, 1.000000000000000000 ) ) ;
#125 = DIRECTION ( 'NONE',  ( 3.491481338843133355E-15, -1.227517819005651059E-16, 1.000000000000000000 ) ) ;
#126 = CIRCLE ( 'NONE', #58, 2.999999999999996447 ) ;
#127 = CARTESIAN_POINT ( 'NONE',  ( 1.990144363140586139E-13, -6.980486755139912911E-15, 57.00000000000000000 ) ) ;
#128 = PLANE ( 'NONE',  #208 ) ;
#129 = PERSON_AND_ORGANIZATION ( #70, #27 ) ;
#130 = DIRECTION ( 'NONE',  ( -3.491481338843133355E-15, 1.224646799147353207E-16, -1.000000000000000000 ) ) ;
#131 = PERSON_AND_ORGANIZATION ( #70, #27 ) ;
#132 = CYLINDRICAL_SURFACE ( 'NONE', #212, 1.499999999999995781 ) ;
#133 = APPROVAL ( #134, 'UNSPECIFIED' ) ;
#134 = APPROVAL_STATUS ( 'not_yet_approved' ) ;
#135 = CALENDAR_DATE ( 2021, 1, 11 ) ;
#136 = LOCAL_TIME ( 10, 16, 10.00000000000000000, #178 ) ;
#137 = ADVANCED_FACE ( 'NONE', ( #173 ), #128, .F. ) ;
#138 = APPLICATION_CONTEXT ( 'configuration controlled 3d designs of mechanical parts and assemblies' ) ;
#139 = CC_DESIGN_APPROVAL ( #91, ( #161 ) ) ;
#140 = ORIENTED_EDGE ( 'NONE', *, *, #201, .T. ) ;
#141 = DIRECTION ( 'NONE',  ( 1.000000000000000000, 0.0000000000000000000, 0.0000000000000000000 ) ) ;
#142 = CALENDAR_DATE ( 2021, 1, 11 ) ;
#143 = ADVANCED_FACE ( 'NONE', ( #59, #42 ), #132, .T. ) ;
#144 = PERSON_AND_ORGANIZATION_ROLE ( 'design_owner' ) ;
#145 = EDGE_LOOP ( 'NONE', ( #188 ) ) ;
#146 = CARTESIAN_POINT ( 'NONE',  ( 2.444036937190193033E-14, -8.592624733039555931E-16, 6.999999999999999112 ) ) ;
#147 = PERSON_AND_ORGANIZATION_ROLE ( 'creator' ) ;
#148 = DIRECTION ( 'NONE',  ( 0.0000000000000000000, 1.000000000000000000, 0.0000000000000000000 ) ) ;
#149 = PLANE ( 'NONE',  #47 ) ;
#150 = CALENDAR_DATE ( 2021, 1, 11 ) ;
#151 = CARTESIAN_POINT ( 'NONE',  ( 4.072355432398988773E-14, -5.724761996143286443E-16, 11.66368952654440250 ) ) ;
#152 = PERSON_AND_ORGANIZATION_ROLE ( 'design_supplier' ) ;
#153 = CARTESIAN_POINT ( 'NONE',  ( -6.413731847436034514E-31, 0.0000000000000000000, -1.836965810494968570E-16 ) ) ;
#154 = CC_DESIGN_PERSON_AND_ORGANIZATION_ASSIGNMENT ( #104, #144, ( #176 ) ) ;
#155 = AXIS2_PLACEMENT_3D ( 'NONE', #71, #124, #90 ) ;
#156 = APPROVAL_PERSON_ORGANIZATION ( #218, #72, #52 ) ;
#157 = CC_DESIGN_APPROVAL ( #133, ( #220 ) ) ;
#158 = CIRCLE ( 'NONE', #56, 1.499999999999995337 ) ;
#159 = EDGE_LOOP ( 'NONE', ( #87 ) ) ;
#160 = PERSON_AND_ORGANIZATION_ROLE ( 'creator' ) ;
#161 = PRODUCT_DEFINITION ( 'UNKNOWN', '', #165, #84 ) ;
#162 = ORIENTED_EDGE ( 'NONE', *, *, #77, .F. ) ;
#163 = PERSON_AND_ORGANIZATION ( #70, #27 ) ;
#164 = ORIENTED_EDGE ( 'NONE', *, *, #35, .T. ) ;
#165 = PRODUCT_DEFINITION_FORMATION_WITH_SPECIFIED_SOURCE ( 'ANY', '', #176, .NOT_KNOWN. ) ;
#166 = CALENDAR_DATE ( 2021, 1, 11 ) ;
#167 = ORIENTED_EDGE ( 'NONE', *, *, #35, .F. ) ;
#168 = PERSON_AND_ORGANIZATION ( #70, #27 ) ;
#169 = CARTESIAN_POINT ( 'NONE',  ( 2.444036937190192718E-14, 0.0000000000000000000, 6.999999999999998224 ) ) ;
#170 = DIRECTION ( 'NONE',  ( 0.0000000000000000000, 0.0000000000000000000, 1.000000000000000000 ) ) ;
#171 = FACE_OUTER_BOUND ( 'NONE', #48, .T. ) ;
#172 = DATE_AND_TIME ( #150, #136 ) ;
#173 = FACE_OUTER_BOUND ( 'NONE', #214, .T. ) ;
#174 = CC_DESIGN_DATE_AND_TIME_ASSIGNMENT ( #37, #110, ( #161 ) ) ;
#175 = DIRECTION ( 'NONE',  ( 3.491481338843133355E-15, -1.224646799147353207E-16, 1.000000000000000000 ) ) ;
#176 = PRODUCT ( '41806', '41806', '', ( #67 ) ) ;
#177 = DIRECTION ( 'NONE',  ( -4.346553373934532134E-31, -1.000000000000000000, -1.227517819005651059E-16 ) ) ;
#178 = COORDINATED_UNIVERSAL_TIME_OFFSET ( 1, 0, .AHEAD. ) ;
#179 = AXIS2_PLACEMENT_3D ( 'NONE', #113, #2, #61 ) ;
#180 = EDGE_LOOP ( 'NONE', ( #120 ) ) ;
#181 = ADVANCED_FACE ( 'NONE', ( #10, #112 ), #75, .T. ) ;
#182 = APPLICATION_PROTOCOL_DEFINITION ( 'international standard', 'config_control_design', 1994, #32 ) ;
#183 = ORIENTED_EDGE ( 'NONE', *, *, #210, .T. ) ;
#184 = CARTESIAN_POINT ( 'NONE',  ( 2.444036937190193033E-14, -1.499999999999996225, 6.999999999999999112 ) ) ;
#185 = CIRCLE ( 'NONE', #80, 2.999999999999993783 ) ;
#186 = CC_DESIGN_APPROVAL ( #72, ( #165 ) ) ;
#187 = DATE_AND_TIME ( #142, #66 ) ;
#188 = ORIENTED_EDGE ( 'NONE', *, *, #191, .F. ) ;
#189 = CARTESIAN_POINT ( 'NONE',  ( -6.428783337233463279E-31, 5.291728677847594271E-35, -1.841276728508471658E-16 ) ) ;
#190 = FACE_OUTER_BOUND ( 'NONE', #145, .T. ) ;
#191 = EDGE_CURVE ( 'NONE', #92, #92, #103, .T. ) ;
#192 = DIRECTION ( 'NONE',  ( 4.275831445896958607E-31, 1.000000000000000000, 1.224646799147353454E-16 ) ) ;
#193 = MANIFOLD_SOLID_BREP ( 'Corps-Déplacer/Copier1[1]', #118 ) ;
#194 = DIRECTION ( 'NONE',  ( 3.491481338843133355E-15, -1.227517819005651059E-16, 1.000000000000000000 ) ) ;
#195 = APPROVAL_PERSON_ORGANIZATION ( #129, #133, #196 ) ;
#196 = APPROVAL_ROLE ( '' ) ;
#197 = CC_DESIGN_PERSON_AND_ORGANIZATION_ASSIGNMENT ( #1, #76, ( #220 ) ) ;
#198 = CIRCLE ( 'NONE', #114, 2.399999999999996803 ) ;
#199 = ORIENTED_EDGE ( 'NONE', *, *, #77, .T. ) ;
#200 = APPROVAL_DATE_TIME ( #85, #91 ) ;
#201 = EDGE_CURVE ( 'NONE', #34, #34, #198, .T. ) ;
#202 = DIRECTION ( 'NONE',  ( 3.491481338843133355E-15, -1.227517819005651059E-16, 1.000000000000000000 ) ) ;
#203 = DIRECTION ( 'NONE',  ( -3.491481338843133355E-15, 1.224646799147353207E-16, -1.000000000000000000 ) ) ;
#204 = EDGE_CURVE ( 'NONE', #106, #106, #126, .T. ) ;
#205 = CARTESIAN_POINT ( 'NONE',  ( 0.0000000000000000000, 0.0000000000000000000, 0.0000000000000000000 ) ) ;
#206 = CARTESIAN_POINT ( 'NONE',  ( 2.444036937190193033E-14, -8.592624733039555931E-16, 6.999999999999999112 ) ) ;
#207 = DATE_TIME_ROLE ( 'classification_date' ) ;
#208 = AXIS2_PLACEMENT_3D ( 'NONE', #73, #130, #78 ) ;
#209 = AXIS2_PLACEMENT_3D ( 'NONE', #121, #170, #141 ) ;
#210 = EDGE_CURVE ( 'NONE', #215, #215, #95, .T. ) ;
#211 = AXIS2_PLACEMENT_3D ( 'NONE', #25, #41, #30 ) ;
#212 = AXIS2_PLACEMENT_3D ( 'NONE', #153, #79, #223 ) ;
#213 = PRODUCT_DEFINITION_SHAPE ( 'NONE', 'NONE',  #161 ) ;
#214 = EDGE_LOOP ( 'NONE', ( #53 ) ) ;
#215 = VERTEX_POINT ( 'NONE', #8 ) ;
#216 = APPROVAL_STATUS ( 'not_yet_approved' ) ;
#217 = ORIENTED_EDGE ( 'NONE', *, *, #191, .T. ) ;
#218 = PERSON_AND_ORGANIZATION ( #70, #27 ) ;
#219 = PLANE ( 'NONE',  #211 ) ;
#220 = SECURITY_CLASSIFICATION ( '', '', #45 ) ;
#221 = ADVANCED_FACE ( 'NONE', ( #171 ), #149, .F. ) ;
#222 = DIRECTION ( 'NONE',  ( -4.285855558155653280E-31, -1.000000000000000000, -1.227517819005650812E-16 ) ) ;
#223 = DIRECTION ( 'NONE',  ( -4.285855558155652404E-31, -1.000000000000000000, -1.227517819005651059E-16 ) ) ;
ENDSEC;
END-ISO-10303-21;
