ISO-10303-21;
HEADER;
FILE_DESCRIPTION (( 'STEP AP203' ),
    '1' );
FILE_NAME ('41777.step',
    '2021-10-13T11:35:44',
    ( '' ),
    ( '' ),
    'SwSTEP 2.0',
    'SolidWorks 2019',
    '' );
FILE_SCHEMA (( 'CONFIG_CONTROL_DESIGN' ));
ENDSEC;

DATA;
#1 = DIRECTION ( 'NONE',  ( 4.275831445896958607E-31, 1.000000000000000000, 1.224646799147353207E-16 ) ) ;
#2 = CARTESIAN_POINT ( 'NONE',  ( 1.745740669421566678E-13, 1.124819836996381574E-32, 50.00000000000000000 ) ) ;
#3 = CALENDAR_DATE ( 2021, 13, 10 ) ;
#4 = AXIS2_PLACEMENT_3D ( 'NONE', #147, #73, #193 ) ;
#5 = CARTESIAN_POINT ( 'NONE',  ( 0.0000000000000000000, 0.0000000000000000000, 0.0000000000000000000 ) ) ;
#6 = PRODUCT_RELATED_PRODUCT_CATEGORY ( 'detail', '', ( #209 ) ) ;
#7 = ORIENTED_EDGE ( 'NONE', *, *, #91, .T. ) ;
#8 = APPROVAL_DATE_TIME ( #163, #143 ) ;
#9 = CC_DESIGN_APPROVAL ( #57, ( #170 ) ) ;
#10 = SECURITY_CLASSIFICATION_LEVEL ( 'unclassified' ) ;
#11 = ADVANCED_FACE ( 'NONE', ( #215, #76 ), #129, .T. ) ;
#12 = DIRECTION ( 'NONE',  ( 1.510825004591027855E-30, 1.000000000000000000, 4.327174794786742882E-16 ) ) ;
#13 = CIRCLE ( 'NONE', #102, 1.400000000000002798 ) ;
#14 = EDGE_LOOP ( 'NONE', ( #149 ) ) ;
#15 = EDGE_LOOP ( 'NONE', ( #140 ) ) ;
#16 = ORIENTED_EDGE ( 'NONE', *, *, #34, .T. ) ;
#17 = CONICAL_SURFACE ( 'NONE', #113, 1.499999999999996669, 0.7853981633974479459 ) ;
#18 = ORIENTED_EDGE ( 'NONE', *, *, #34, .F. ) ;
#19 = CARTESIAN_POINT ( 'NONE',  ( 5.676736328760279737E-14, 1.434074173710929712, 16.25881904510252340 ) ) ;
#20 = DIRECTION ( 'NONE',  ( -4.275831445896958607E-31, -1.000000000000000000, -1.224646799147353207E-16 ) ) ;
#21 = CC_DESIGN_APPROVAL ( #43, ( #263 ) ) ;
#22 = DIRECTION ( 'NONE',  ( -3.491481338843133355E-15, 1.224646799147353207E-16, -1.000000000000000000 ) ) ;
#23 = ADVANCED_FACE ( 'NONE', ( #190, #35 ), #38, .T. ) ;
#24 = DIRECTION ( 'NONE',  ( -4.275831445896958607E-31, -1.000000000000000000, -1.224646799147353207E-16 ) ) ;
#25 = FACE_BOUND ( 'NONE', #15, .T. ) ;
#26 = COORDINATED_UNIVERSAL_TIME_OFFSET ( 1, 0, .AHEAD. ) ;
#27 = ADVANCED_FACE ( 'NONE', ( #60, #167 ), #257, .F. ) ;
#28 = DATE_AND_TIME ( #226, #197 ) ;
#29 = EDGE_LOOP ( 'NONE', ( #109 ) ) ;
#30 = APPROVAL_ROLE ( '' ) ;
#31 = DATE_TIME_ROLE ( 'classification_date' ) ;
#32 = AXIS2_PLACEMENT_3D ( 'NONE', #145, #37, #41 ) ;
#33 = LOCAL_TIME ( 13, 35, 44.00000000000000000, #69 ) ;
#34 = EDGE_CURVE ( 'NONE', #200, #200, #122, .T. ) ;
#35 = FACE_OUTER_BOUND ( 'NONE', #119, .T. ) ;
#36 = MANIFOLD_SOLID_BREP ( 'Corps-Déplacer/Copier1[2]', #235 ) ;
#37 = DIRECTION ( 'NONE',  ( -3.491481338843133355E-15, 4.327174794786742882E-16, -1.000000000000000000 ) ) ;
#38 = CYLINDRICAL_SURFACE ( 'NONE', #32, 1.400000000000002798 ) ;
#39 = DIRECTION ( 'NONE',  ( -3.491481338843133355E-15, 4.327174794786742882E-16, -1.000000000000000000 ) ) ;
#40 = APPLICATION_CONTEXT ( 'configuration controlled 3d designs of mechanical parts and assemblies' ) ;
#41 = DIRECTION ( 'NONE',  ( 1.510825004591028030E-30, 1.000000000000000000, 4.327174794786742389E-16 ) ) ;
#42 = PERSON ( 'UNSPECIFIED', 'UNSPECIFIED', 'UNSPECIFIED', ('UNSPECIFIED'), ('UNSPECIFIED'), ('UNSPECIFIED') ) ;
#43 = APPROVAL ( #252, 'UNSPECIFIED' ) ;
#44 = ORGANIZATION ( 'UNSPECIFIED', 'UNSPECIFIED', '' ) ;
#45 = DIRECTION ( 'NONE',  ( 0.0000000000000000000, -1.000000000000000000, 0.0000000000000000000 ) ) ;
#46 = CIRCLE ( 'NONE', #144, 1.434074173710936817 ) ;
#47 = DIRECTION ( 'NONE',  ( 3.491481338843133355E-15, -1.224646799147353207E-16, 1.000000000000000000 ) ) ;
#48 = CARTESIAN_POINT ( 'NONE',  ( 3.840629472727446691E-14, -4.759892274265417170E-15, 11.00000000000000000 ) ) ;
#49 = CC_DESIGN_PERSON_AND_ORGANIZATION_ASSIGNMENT ( #107, #228, ( #263 ) ) ;
#50 = PERSON_AND_ORGANIZATION ( #42, #44 ) ;
#51 = PERSON_AND_ORGANIZATION_ROLE ( 'design_supplier' ) ;
#52 = APPROVAL_ROLE ( '' ) ;
#53 = CONICAL_SURFACE ( 'NONE', #185, 2.500000000000003553, 0.2617993877991505736 ) ;
#54 = FACE_BOUND ( 'NONE', #227, .T. ) ;
#55 = CARTESIAN_POINT ( 'NONE',  ( 3.840629472727446691E-14, -4.759892274265417170E-15, 11.00000000000000000 ) ) ;
#56 = APPLICATION_CONTEXT ( 'configuration controlled 3d designs of mechanical parts and assemblies' ) ;
#57 = APPROVAL ( #229, 'UNSPECIFIED' ) ;
#58 = CARTESIAN_POINT ( 'NONE',  ( 5.676736328760279737E-14, -7.035475196496629834E-15, 16.25881904510252340 ) ) ;
#59 = AXIS2_PLACEMENT_3D ( 'NONE', #55, #111, #196 ) ;
#60 = FACE_OUTER_BOUND ( 'NONE', #213, .T. ) ;
#61 = CARTESIAN_POINT ( 'NONE',  ( 6.414159511017316139E-14, -2.000000000000001776, 18.37088298212867343 ) ) ;
#62 = VERTEX_POINT ( 'NONE', #240 ) ;
#63 =( LENGTH_UNIT ( ) NAMED_UNIT ( * ) SI_UNIT ( .MILLI., .METRE. ) );
#64 = FACE_OUTER_BOUND ( 'NONE', #187, .T. ) ;
#65 = CIRCLE ( 'NONE', #192, 1.400000000000005462 ) ;
#66 = CARTESIAN_POINT ( 'NONE',  ( 1.779113393168759605E-15, -6.240289753306332669E-17, 0.5095583279726909609 ) ) ;
#67 = PERSON_AND_ORGANIZATION ( #42, #44 ) ;
#68 = CC_DESIGN_DATE_AND_TIME_ASSIGNMENT ( #160, #31, ( #170 ) ) ;
#69 = COORDINATED_UNIVERSAL_TIME_OFFSET ( 1, 0, .AHEAD. ) ;
#70 = PERSON_AND_ORGANIZATION ( #42, #44 ) ;
#71 = CARTESIAN_POINT ( 'NONE',  ( 2.541590561669639731E-15, -8.914699647580415197E-17, 0.7279404685324107893 ) ) ;
#72 = AXIS2_PLACEMENT_3D ( 'NONE', #223, #47, #20 ) ;
#73 = DIRECTION ( 'NONE',  ( 3.491481338843133355E-15, -4.327174794786742882E-16, 1.000000000000000000 ) ) ;
#74 = CC_DESIGN_DATE_AND_TIME_ASSIGNMENT ( #181, #249, ( #172 ) ) ;
#75 = ORIENTED_EDGE ( 'NONE', *, *, #224, .F. ) ;
#76 = FACE_OUTER_BOUND ( 'NONE', #161, .T. ) ;
#77 = CIRCLE ( 'NONE', #154, 1.499999999999996669 ) ;
#78 = ORIENTED_EDGE ( 'NONE', *, *, #188, .T. ) ;
#79 = CARTESIAN_POINT ( 'NONE',  ( 3.840629472727446691E-14, -1.400000000000007683, 11.00000000000000000 ) ) ;
#80 = DIRECTION ( 'NONE',  ( 3.491481338843133355E-15, -4.327174794786742882E-16, 1.000000000000000000 ) ) ;
#81 = AXIS2_PLACEMENT_3D ( 'NONE', #198, #98, #218 ) ;
#82 = DIRECTION ( 'NONE',  ( 0.0000000000000000000, -1.000000000000000000, 0.0000000000000000000 ) ) ;
#83 = DIRECTION ( 'NONE',  ( 0.0000000000000000000, 1.000000000000000000, 0.0000000000000000000 ) ) ;
#84 = PLANE ( 'NONE',  #155 ) ;
#85 = CIRCLE ( 'NONE', #59, 1.400000000000002798 ) ;
#86 = CC_DESIGN_PERSON_AND_ORGANIZATION_ASSIGNMENT ( #50, #225, ( #172 ) ) ;
#87 = CALENDAR_DATE ( 2021, 13, 10 ) ;
#88 = APPLICATION_PROTOCOL_DEFINITION ( 'international standard', 'config_control_design', 1994, #56 ) ;
#89 = APPROVAL_STATUS ( 'not_yet_approved' ) ;
#90 = PERSON_AND_ORGANIZATION ( #42, #44 ) ;
#91 = EDGE_CURVE ( 'NONE', #243, #243, #65, .T. ) ;
#92 = CARTESIAN_POINT ( 'NONE',  ( 1.745740669421566678E-13, -6.123233995736766085E-15, 50.00000000000000000 ) ) ;
#93 = CARTESIAN_POINT ( 'NONE',  ( 0.0000000000000000000, 0.0000000000000000000, 0.0000000000000000000 ) ) ;
#94 = EDGE_LOOP ( 'NONE', ( #7 ) ) ;
#95 = ADVANCED_FACE ( 'NONE', ( #96 ), #106, .T. ) ;
#96 = FACE_OUTER_BOUND ( 'NONE', #128, .T. ) ;
#97 = DIRECTION ( 'NONE',  ( 0.0000000000000000000, 1.000000000000000000, 0.0000000000000000000 ) ) ;
#98 = DIRECTION ( 'NONE',  ( -3.491481338843133355E-15, 4.327174794786742882E-16, -1.000000000000000000 ) ) ;
#99 = FACE_OUTER_BOUND ( 'NONE', #208, .T. ) ;
#100 = FACE_OUTER_BOUND ( 'NONE', #256, .T. ) ;
#101 = DIRECTION ( 'NONE',  ( -3.491481338843133355E-15, 1.224646799147353207E-16, -1.000000000000000000 ) ) ;
#102 = AXIS2_PLACEMENT_3D ( 'NONE', #66, #117, #137 ) ;
#103 = PERSON_AND_ORGANIZATION ( #42, #44 ) ;
#104 = APPLICATION_PROTOCOL_DEFINITION ( 'international standard', 'config_control_design', 1994, #40 ) ;
#105 = AXIS2_PLACEMENT_3D ( 'NONE', #93, #238, #210 ) ;
#106 = CONICAL_SURFACE ( 'NONE', #116, 1.999999999999990452, 1.221730476396026388 ) ;
#107 = PERSON_AND_ORGANIZATION ( #42, #44 ) ;
#108 = ADVANCED_FACE ( 'NONE', ( #233, #54 ), #17, .T. ) ;
#109 = ORIENTED_EDGE ( 'NONE', *, *, #188, .F. ) ;
#110 = ORIENTED_EDGE ( 'NONE', *, *, #132, .T. ) ;
#111 = DIRECTION ( 'NONE',  ( -3.491481338843133355E-15, 1.224646799147353207E-16, -1.000000000000000000 ) ) ;
#112 = ORIENTED_EDGE ( 'NONE', *, *, #91, .F. ) ;
#113 = AXIS2_PLACEMENT_3D ( 'NONE', #92, #166, #255 ) ;
#114 = DIRECTION ( 'NONE',  ( -3.491481338843133355E-15, 1.224646799147353207E-16, -1.000000000000000000 ) ) ;
#115 = CC_DESIGN_PERSON_AND_ORGANIZATION_ASSIGNMENT ( #67, #183, ( #209 ) ) ;
#116 = AXIS2_PLACEMENT_3D ( 'NONE', #71, #231, #259 ) ;
#117 = DIRECTION ( 'NONE',  ( -3.491481338843133355E-15, 1.224646799147353207E-16, -1.000000000000000000 ) ) ;
#118 = CARTESIAN_POINT ( 'NONE',  ( 1.728283262727351074E-13, -6.062001655779398511E-15, 49.50000000000000000 ) ) ;
#119 = EDGE_LOOP ( 'NONE', ( #182 ) ) ;
#120 = APPROVAL_DATE_TIME ( #139, #43 ) ;
#121 = ORIENTED_EDGE ( 'NONE', *, *, #261, .F. ) ;
#122 = CIRCLE ( 'NONE', #4, 1.999999999999994005 ) ;
#123 = COORDINATED_UNIVERSAL_TIME_OFFSET ( 1, 0, .AHEAD. ) ;
#124 = EDGE_CURVE ( 'NONE', #135, #135, #46, .T. ) ;
#125 = EDGE_LOOP ( 'NONE', ( #75 ) ) ;
#126 = ORIENTED_EDGE ( 'NONE', *, *, #132, .F. ) ;
#127 = AXIS2_PLACEMENT_3D ( 'NONE', #5, #178, #141 ) ;
#128 = EDGE_LOOP ( 'NONE', ( #203 ) ) ;
#129 = CYLINDRICAL_SURFACE ( 'NONE', #105, 1.999999999999994005 ) ;
#130 = EDGE_LOOP ( 'NONE', ( #16 ) ) ;
#131 = CARTESIAN_POINT ( 'NONE',  ( 5.586370142149013368E-14, 1.399999999999998579, 16.00000000000000000 ) ) ;
#132 = EDGE_CURVE ( 'NONE', #173, #173, #85, .T. ) ;
#133 =( NAMED_UNIT ( * ) PLANE_ANGLE_UNIT ( ) SI_UNIT ( $, .RADIAN. ) );
#134 = ADVANCED_FACE ( 'NONE', ( #25, #64 ), #53, .T. ) ;
#135 = VERTEX_POINT ( 'NONE', #19 ) ;
#136 = AXIS2_PLACEMENT_3D ( 'NONE', #118, #101, #83 ) ;
#137 = DIRECTION ( 'NONE',  ( -5.502656983963519999E-31, -1.000000000000000000, -1.548860246407860378E-16 ) ) ;
#138 = COORDINATED_UNIVERSAL_TIME_OFFSET ( 1, 0, .AHEAD. ) ;
#139 = DATE_AND_TIME ( #142, #33 ) ;
#140 = ORIENTED_EDGE ( 'NONE', *, *, #124, .F. ) ;
#141 = DIRECTION ( 'NONE',  ( 1.000000000000000000, 0.0000000000000000000, 0.0000000000000000000 ) ) ;
#142 = CALENDAR_DATE ( 2021, 13, 10 ) ;
#143 = APPROVAL ( #89, 'UNSPECIFIED' ) ;
#144 = AXIS2_PLACEMENT_3D ( 'NONE', #58, #212, #146 ) ;
#145 = CARTESIAN_POINT ( 'NONE',  ( 0.0000000000000000000, 0.0000000000000000000, 0.0000000000000000000 ) ) ;
#146 = DIRECTION ( 'NONE',  ( 0.0000000000000000000, 1.000000000000000000, 0.0000000000000000000 ) ) ;
#147 = CARTESIAN_POINT ( 'NONE',  ( 6.414159511017316139E-14, -7.949402179824390647E-15, 18.37088298212867343 ) ) ;
#148 = APPROVAL_PERSON_ORGANIZATION ( #90, #143, #202 ) ;
#149 = ORIENTED_EDGE ( 'NONE', *, *, #124, .T. ) ;
#150 = UNCERTAINTY_MEASURE_WITH_UNIT (LENGTH_MEASURE( 1.000000000000000082E-05 ), #63, 'distance_accuracy_value', 'NONE');
#151 = ORIENTED_EDGE ( 'NONE', *, *, #224, .T. ) ;
#152 = DIRECTION ( 'NONE',  ( 0.0000000000000000000, 1.000000000000000000, 0.0000000000000000000 ) ) ;
#153 = VERTEX_POINT ( 'NONE', #242 ) ;
#154 = AXIS2_PLACEMENT_3D ( 'NONE', #177, #157, #152 ) ;
#155 = AXIS2_PLACEMENT_3D ( 'NONE', #246, #176, #24 ) ;
#156 = VERTEX_POINT ( 'NONE', #174 ) ;
#157 = DIRECTION ( 'NONE',  ( -3.491481338843133355E-15, 1.224646799147353207E-16, -1.000000000000000000 ) ) ;
#158 = FACE_OUTER_BOUND ( 'NONE', #94, .T. ) ;
#159 = CIRCLE ( 'NONE', #241, 1.400000000000002798 ) ;
#160 = DATE_AND_TIME ( #253, #216 ) ;
#161 = EDGE_LOOP ( 'NONE', ( #78 ) ) ;
#162 = APPROVAL_PERSON_ORGANIZATION ( #70, #57, #52 ) ;
#163 = DATE_AND_TIME ( #3, #179 ) ;
#164 = ADVANCED_FACE ( 'NONE', ( #158, #100 ), #195, .T. ) ;
#165 = PERSON_AND_ORGANIZATION ( #42, #44 ) ;
#166 = DIRECTION ( 'NONE',  ( -3.491481338843133355E-15, 1.224646799147353207E-16, -1.000000000000000000 ) ) ;
#167 = FACE_OUTER_BOUND ( 'NONE', #14, .T. ) ;
#168 = EDGE_LOOP ( 'NONE', ( #110 ) ) ;
#169 = AXIS2_PLACEMENT_3D ( 'NONE', #189, #39, #12 ) ;
#170 = SECURITY_CLASSIFICATION ( '', '', #10 ) ;
#171 = ORIENTED_EDGE ( 'NONE', *, *, #261, .T. ) ;
#172 = PRODUCT_DEFINITION ( 'UNKNOWN', '', #263, #214 ) ;
#173 = VERTEX_POINT ( 'NONE', #79 ) ;
#174 = CARTESIAN_POINT ( 'NONE',  ( 1.745740669421566678E-13, 1.499999999999990452, 50.00000000000000000 ) ) ;
#175 = CARTESIAN_POINT ( 'NONE',  ( 1.779113393168758817E-15, -1.400000000000002798, 0.5095583279726908499 ) ) ;
#176 = DIRECTION ( 'NONE',  ( 3.491481338843133355E-15, -1.224646799147353207E-16, 1.000000000000000000 ) ) ;
#177 = CARTESIAN_POINT ( 'NONE',  ( 1.745740669421566678E-13, -6.123233995736766085E-15, 50.00000000000000000 ) ) ;
#178 = DIRECTION ( 'NONE',  ( 0.0000000000000000000, 0.0000000000000000000, 1.000000000000000000 ) ) ;
#179 = LOCAL_TIME ( 13, 35, 44.00000000000000000, #26 ) ;
#180 = SHAPE_DEFINITION_REPRESENTATION ( #186, #237 ) ;
#181 = DATE_AND_TIME ( #87, #211 ) ;
#182 = ORIENTED_EDGE ( 'NONE', *, *, #236, .F. ) ;
#183 = PERSON_AND_ORGANIZATION_ROLE ( 'design_owner' ) ;
#184 = ADVANCED_FACE ( 'NONE', ( #217 ), #260, .F. ) ;
#185 = AXIS2_PLACEMENT_3D ( 'NONE', #221, #80, #45 ) ;
#186 = PRODUCT_DEFINITION_SHAPE ( 'NONE', 'NONE',  #172 ) ;
#187 = EDGE_LOOP ( 'NONE', ( #18 ) ) ;
#188 = EDGE_CURVE ( 'NONE', #62, #62, #251, .T. ) ;
#189 = CARTESIAN_POINT ( 'NONE',  ( 5.586370142149013368E-14, -6.938893903907228378E-15, 16.00000000000000000 ) ) ;
#190 = FACE_OUTER_BOUND ( 'NONE', #239, .T. ) ;
#191 = DIRECTION ( 'NONE',  ( -3.491481338843133355E-15, 4.327174794786742882E-16, -1.000000000000000000 ) ) ;
#192 = AXIS2_PLACEMENT_3D ( 'NONE', #234, #191, #97 ) ;
#193 = DIRECTION ( 'NONE',  ( 0.0000000000000000000, -1.000000000000000000, 0.0000000000000000000 ) ) ;
#194 = PLANE ( 'NONE',  #72 ) ;
#195 = CYLINDRICAL_SURFACE ( 'NONE', #81, 1.400000000000002798 ) ;
#196 = DIRECTION ( 'NONE',  ( 0.0000000000000000000, -1.000000000000000000, 0.0000000000000000000 ) ) ;
#197 = LOCAL_TIME ( 13, 35, 44.00000000000000000, #123 ) ;
#198 = CARTESIAN_POINT ( 'NONE',  ( 0.0000000000000000000, 0.0000000000000000000, 0.0000000000000000000 ) ) ;
#199 = MANIFOLD_SOLID_BREP ( 'Corps-Déplacer/Copier1[1]', #245 ) ;
#200 = VERTEX_POINT ( 'NONE', #61 ) ;
#201 = CC_DESIGN_PERSON_AND_ORGANIZATION_ASSIGNMENT ( #248, #206, ( #170 ) ) ;
#202 = APPROVAL_ROLE ( '' ) ;
#203 = ORIENTED_EDGE ( 'NONE', *, *, #236, .T. ) ;
#204 = ADVANCED_FACE ( 'NONE', ( #99 ), #84, .T. ) ;
#205 = COORDINATED_UNIVERSAL_TIME_OFFSET ( 1, 0, .AHEAD. ) ;
#206 = PERSON_AND_ORGANIZATION_ROLE ( 'classification_officer' ) ;
#207 = APPROVAL_DATE_TIME ( #28, #57 ) ;
#208 = EDGE_LOOP ( 'NONE', ( #121 ) ) ;
#209 = PRODUCT ( '41777', '41777', '', ( #250 ) ) ;
#210 = DIRECTION ( 'NONE',  ( 4.275831445896959482E-31, 1.000000000000000000, 1.224646799147353207E-16 ) ) ;
#211 = LOCAL_TIME ( 13, 35, 44.00000000000000000, #205 ) ;
#212 = DIRECTION ( 'NONE',  ( -3.491481338843133355E-15, 4.327174794786742882E-16, -1.000000000000000000 ) ) ;
#213 = EDGE_LOOP ( 'NONE', ( #112 ) ) ;
#214 = DESIGN_CONTEXT ( 'detailed design', #40, 'design' ) ;
#215 = FACE_OUTER_BOUND ( 'NONE', #130, .T. ) ;
#216 = LOCAL_TIME ( 13, 35, 44.00000000000000000, #138 ) ;
#217 = FACE_OUTER_BOUND ( 'NONE', #125, .T. ) ;
#218 = DIRECTION ( 'NONE',  ( 1.510825004591028030E-30, 1.000000000000000000, 4.327174794786742389E-16 ) ) ;
#219 = CC_DESIGN_PERSON_AND_ORGANIZATION_ASSIGNMENT ( #103, #51, ( #263 ) ) ;
#220 = FACE_OUTER_BOUND ( 'NONE', #168, .T. ) ;
#221 = CARTESIAN_POINT ( 'NONE',  ( 7.065678798529383693E-14, -8.756863989193181601E-15, 20.23690838591313934 ) ) ;
#222 = CC_DESIGN_APPROVAL ( #143, ( #172 ) ) ;
#223 = CARTESIAN_POINT ( 'NONE',  ( 3.840629472727446691E-14, 1.499759782661849671E-32, 11.00000000000000000 ) ) ;
#224 = EDGE_CURVE ( 'NONE', #156, #156, #77, .T. ) ;
#225 = PERSON_AND_ORGANIZATION_ROLE ( 'creator' ) ;
#226 = CALENDAR_DATE ( 2021, 13, 10 ) ;
#227 = EDGE_LOOP ( 'NONE', ( #151 ) ) ;
#228 = PERSON_AND_ORGANIZATION_ROLE ( 'creator' ) ;
#229 = APPROVAL_STATUS ( 'not_yet_approved' ) ;
#230 =( GEOMETRIC_REPRESENTATION_CONTEXT ( 3 ) GLOBAL_UNCERTAINTY_ASSIGNED_CONTEXT ( ( #150 ) ) GLOBAL_UNIT_ASSIGNED_CONTEXT ( ( #63, #133, #244 ) ) REPRESENTATION_CONTEXT ( 'NONE', 'WORKASPACE' ) );
#231 = DIRECTION ( 'NONE',  ( 3.491481338843133355E-15, -1.224646799147353207E-16, 1.000000000000000000 ) ) ;
#232 = ADVANCED_FACE ( 'NONE', ( #220 ), #194, .F. ) ;
#233 = FACE_OUTER_BOUND ( 'NONE', #29, .T. ) ;
#234 = CARTESIAN_POINT ( 'NONE',  ( 5.586370142149013368E-14, -6.923479671658788611E-15, 16.00000000000000000 ) ) ;
#235 = CLOSED_SHELL ( 'NONE', ( #95, #23, #204 ) ) ;
#236 = EDGE_CURVE ( 'NONE', #262, #262, #13, .T. ) ;
#237 = ADVANCED_BREP_SHAPE_REPRESENTATION ( '41777', ( #199, #36, #127 ), #230 ) ;
#238 = DIRECTION ( 'NONE',  ( -3.491481338843133355E-15, 1.224646799147353207E-16, -1.000000000000000000 ) ) ;
#239 = EDGE_LOOP ( 'NONE', ( #171 ) ) ;
#240 = CARTESIAN_POINT ( 'NONE',  ( 1.728283262727351074E-13, 1.999999999999990452, 49.50000000000000000 ) ) ;
#241 = AXIS2_PLACEMENT_3D ( 'NONE', #48, #22, #82 ) ;
#242 = CARTESIAN_POINT ( 'NONE',  ( 3.840629472727446691E-14, -1.400000000000007683, 11.00000000000000000 ) ) ;
#243 = VERTEX_POINT ( 'NONE', #131 ) ;
#244 =( NAMED_UNIT ( * ) SI_UNIT ( $, .STERADIAN. ) SOLID_ANGLE_UNIT ( ) );
#245 = CLOSED_SHELL ( 'NONE', ( #11, #108, #184, #164, #134, #27, #232 ) ) ;
#246 = CARTESIAN_POINT ( 'NONE',  ( 3.840629472727446691E-14, 1.499759782661849671E-32, 11.00000000000000000 ) ) ;
#247 = APPROVAL_PERSON_ORGANIZATION ( #165, #43, #30 ) ;
#248 = PERSON_AND_ORGANIZATION ( #42, #44 ) ;
#249 = DATE_TIME_ROLE ( 'creation_date' ) ;
#250 = MECHANICAL_CONTEXT ( 'NONE', #56, 'mechanical' ) ;
#251 = CIRCLE ( 'NONE', #136, 1.999999999999996669 ) ;
#252 = APPROVAL_STATUS ( 'not_yet_approved' ) ;
#253 = CALENDAR_DATE ( 2021, 13, 10 ) ;
#254 = CC_DESIGN_SECURITY_CLASSIFICATION ( #170, ( #263 ) ) ;
#255 = DIRECTION ( 'NONE',  ( 0.0000000000000000000, 1.000000000000000000, 0.0000000000000000000 ) ) ;
#256 = EDGE_LOOP ( 'NONE', ( #126 ) ) ;
#257 = TOROIDAL_SURFACE ( 'NONE', #169, 2.400000000000005240, 1.000000000000000666 ) ;
#258 = AXIS2_PLACEMENT_3D ( 'NONE', #2, #114, #1 ) ;
#259 = DIRECTION ( 'NONE',  ( -3.851859888774490098E-31, -1.000000000000000000, -1.084202172485509611E-16 ) ) ;
#260 = PLANE ( 'NONE',  #258 ) ;
#261 = EDGE_CURVE ( 'NONE', #153, #153, #159, .T. ) ;
#262 = VERTEX_POINT ( 'NONE', #175 ) ;
#263 = PRODUCT_DEFINITION_FORMATION_WITH_SPECIFIED_SOURCE ( 'ANY', '', #209, .NOT_KNOWN. ) ;
ENDSEC;
END-ISO-10303-21;
