ISO-10303-21;
HEADER;
FILE_DESCRIPTION (( 'STEP AP203' ),
    '1' );
FILE_NAME ('41680.step',
    '2021-09-03T07:22:16',
    ( '' ),
    ( '' ),
    'SwSTEP 2.0',
    'SolidWorks 2019',
    '' );
FILE_SCHEMA (( 'CONFIG_CONTROL_DESIGN' ));
ENDSEC;

DATA;
#1 = CARTESIAN_POINT ( 'NONE',  ( 8.030407079339205455E-14, -2.816687638038912352E-15, 23.00000000000000000 ) ) ;
#2 = CARTESIAN_POINT ( 'NONE',  ( 4.102566777143610601E-16, -3.349999999999992983, -4.102566777143638704E-16 ) ) ;
#3 = CONICAL_SURFACE ( 'NONE', #165, 3.349999999999988098, 1.029744258676649649 ) ;
#4 = EDGE_CURVE ( 'NONE', #332, #157, #269, .T. ) ;
#5 = FACE_OUTER_BOUND ( 'NONE', #82, .T. ) ;
#6 = ORIENTED_EDGE ( 'NONE', *, *, #139, .T. ) ;
#7 = DATE_TIME_ROLE ( 'classification_date' ) ;
#8 = ORIENTED_EDGE ( 'NONE', *, *, #289, .F. ) ;
#9 = CC_DESIGN_PERSON_AND_ORGANIZATION_ASSIGNMENT ( #264, #75, ( #212 ) ) ;
#10 = AXIS2_PLACEMENT_3D ( 'NONE', #57, #36, #326 ) ;
#11 = ORIENTED_EDGE ( 'NONE', *, *, #322, .F. ) ;
#12 = APPROVAL_ROLE ( '' ) ;
#13 = CARTESIAN_POINT ( 'NONE',  ( 4.102566777143606164E-16, -3.349999999999989431, -4.102566777143634267E-16 ) ) ;
#14 = AXIS2_PLACEMENT_3D ( 'NONE', #194, #211, #90 ) ;
#15 = CALENDAR_DATE ( 2021, 3, 9 ) ;
#16 = ORIENTED_EDGE ( 'NONE', *, *, #106, .T. ) ;
#17 = EDGE_CURVE ( 'NONE', #38, #95, #60, .T. ) ;
#18 = VERTEX_POINT ( 'NONE', #256 ) ;
#19 = LINE ( 'NONE', #138, #217 ) ;
#20 = VECTOR ( 'NONE', #28, 1000.000000000000000 ) ;
#21 = ORIENTED_EDGE ( 'NONE', *, *, #313, .F. ) ;
#22 = EDGE_LOOP ( 'NONE', ( #215, #180 ) ) ;
#23 = LINE ( 'NONE', #2, #69 ) ;
#24 = CC_DESIGN_PERSON_AND_ORGANIZATION_ASSIGNMENT ( #261, #287, ( #285 ) ) ;
#25 = DIRECTION ( 'NONE',  ( 0.0000000000000000000, 1.000000000000000000, 0.0000000000000000000 ) ) ;
#26 = PERSON_AND_ORGANIZATION ( #136, #27 ) ;
#27 = ORGANIZATION ( 'UNSPECIFIED', 'UNSPECIFIED', '' ) ;
#28 = DIRECTION ( 'NONE',  ( 1.798245827342160317E-15, -0.8571673007021098911, 0.5150380749100582634 ) ) ;
#29 = EDGE_LOOP ( 'NONE', ( #282, #226 ) ) ;
#30 = ADVANCED_FACE ( 'NONE', ( #267 ), #293, .F. ) ;
#31 = CYLINDRICAL_SURFACE ( 'NONE', #181, 3.349999999999989431 ) ;
#32 = DATE_AND_TIME ( #15, #171 ) ;
#33 = DIRECTION ( 'NONE',  ( 0.0000000000000000000, 1.000000000000000000, 0.0000000000000000000 ) ) ;
#34 = CLOSED_SHELL ( 'NONE', ( #189, #186, #30, #306, #163, #206 ) ) ;
#35 = LINE ( 'NONE', #109, #131 ) ;
#36 = DIRECTION ( 'NONE',  ( -3.491481338843133355E-15, 1.224646799147353207E-16, -1.000000000000000000 ) ) ;
#37 = APPROVAL_DATE_TIME ( #32, #51 ) ;
#38 = VERTEX_POINT ( 'NONE', #210 ) ;
#39 = CARTESIAN_POINT ( 'NONE',  ( 8.030407079339205455E-14, -2.816687638038912352E-15, 23.00000000000000000 ) ) ;
#40 = CIRCLE ( 'NONE', #188, 3.349999999999988098 ) ;
#41 = VECTOR ( 'NONE', #185, 1000.000000000000000 ) ;
#42 = MECHANICAL_CONTEXT ( 'NONE', #153, 'mechanical' ) ;
#43 = CC_DESIGN_PERSON_AND_ORGANIZATION_ASSIGNMENT ( #198, #177, ( #260 ) ) ;
#44 = PLANE ( 'NONE',  #270 ) ;
#45 = CARTESIAN_POINT ( 'NONE',  ( 2.419596567818291352E-13, 3.349999999999987654, 69.29999999999999716 ) ) ;
#46 = LINE ( 'NONE', #143, #72 ) ;
#47 = MANIFOLD_SOLID_BREP ( 'Corps-Déplacer/Copier1[2]', #216 ) ;
#48 = APPROVAL_DATE_TIME ( #100, #99 ) ;
#49 = ORIENTED_EDGE ( 'NONE', *, *, #94, .T. ) ;
#50 = PERSON_AND_ORGANIZATION ( #136, #27 ) ;
#51 = APPROVAL ( #238, 'UNSPECIFIED' ) ;
#52 = DIRECTION ( 'NONE',  ( -3.491481338843133355E-15, 1.224646799147353207E-16, -1.000000000000000000 ) ) ;
#53 = ORIENTED_EDGE ( 'NONE', *, *, #196, .T. ) ;
#54 = DIRECTION ( 'NONE',  ( -4.275831445896958607E-31, -1.000000000000000000, -1.224646799147353207E-16 ) ) ;
#55 = AXIS2_PLACEMENT_3D ( 'NONE', #291, #191, #54 ) ;
#56 = VERTEX_POINT ( 'NONE', #337 ) ;
#57 = CARTESIAN_POINT ( 'NONE',  ( 2.444036937190193601E-13, -8.572527594031472993E-15, 70.00000000000000000 ) ) ;
#58 = APPROVAL_ROLE ( '' ) ;
#59 = CARTESIAN_POINT ( 'NONE',  ( 2.419596567818291352E-13, -8.486802318091157127E-15, 69.29999999999999716 ) ) ;
#60 = CIRCLE ( 'NONE', #251, 3.349999999999996092 ) ;
#61 = AXIS2_PLACEMENT_3D ( 'NONE', #294, #236, #241 ) ;
#62 = ORIENTED_EDGE ( 'NONE', *, *, #196, .F. ) ;
#63 = ORIENTED_EDGE ( 'NONE', *, *, #17, .T. ) ;
#64 = DIRECTION ( 'NONE',  ( 1.000000000000000000, 0.0000000000000000000, 0.0000000000000000000 ) ) ;
#65 = UNCERTAINTY_MEASURE_WITH_UNIT (LENGTH_MEASURE( 1.000000000000000082E-05 ), #114, 'distance_accuracy_value', 'NONE');
#66 = DIRECTION ( 'NONE',  ( -3.491481338843133355E-15, 1.224646799147353207E-16, -1.000000000000000000 ) ) ;
#67 = CARTESIAN_POINT ( 'NONE',  ( 2.444036937190193601E-13, -8.572527594031472993E-15, 70.00000000000000000 ) ) ;
#68 = EDGE_CURVE ( 'NONE', #38, #205, #23, .T. ) ;
#69 = VECTOR ( 'NONE', #52, 1000.000000000000000 ) ;
#70 = CARTESIAN_POINT ( 'NONE',  ( 2.444036937190193601E-13, -8.572527594031472993E-15, 70.00000000000000000 ) ) ;
#71 = FACE_OUTER_BOUND ( 'NONE', #218, .T. ) ;
#72 = VECTOR ( 'NONE', #118, 999.9999999999998863 ) ;
#73 = DIRECTION ( 'NONE',  ( 0.0000000000000000000, 1.000000000000000000, 0.0000000000000000000 ) ) ;
#74 = ORIENTED_EDGE ( 'NONE', *, *, #68, .F. ) ;
#75 = PERSON_AND_ORGANIZATION_ROLE ( 'creator' ) ;
#76 = CARTESIAN_POINT ( 'NONE',  ( 7.027943689244592018E-15, -3.349999999999988542, 2.012883073742341100 ) ) ;
#77 = DATE_TIME_ROLE ( 'creation_date' ) ;
#78 = FACE_OUTER_BOUND ( 'NONE', #102, .T. ) ;
#79 = LINE ( 'NONE', #13, #41 ) ;
#80 =( GEOMETRIC_REPRESENTATION_CONTEXT ( 3 ) GLOBAL_UNCERTAINTY_ASSIGNED_CONTEXT ( ( #65 ) ) GLOBAL_UNIT_ASSIGNED_CONTEXT ( ( #114, #155, #315 ) ) REPRESENTATION_CONTEXT ( 'NONE', 'WORKASPACE' ) );
#81 = FACE_OUTER_BOUND ( 'NONE', #132, .T. ) ;
#82 = EDGE_LOOP ( 'NONE', ( #137, #6, #53, #192 ) ) ;
#83 = PRODUCT_DEFINITION_SHAPE ( 'NONE', 'NONE',  #212 ) ;
#84 = DIRECTION ( 'NONE',  ( 4.275831445896958607E-31, 1.000000000000000000, 1.224646799147353207E-16 ) ) ;
#85 = PERSON_AND_ORGANIZATION ( #136, #27 ) ;
#86 = ADVANCED_FACE ( 'NONE', ( #310 ), #290, .T. ) ;
#87 = ORIENTED_EDGE ( 'NONE', *, *, #255, .F. ) ;
#88 = CIRCLE ( 'NONE', #223, 3.349999999999990319 ) ;
#89 = ADVANCED_FACE ( 'NONE', ( #78 ), #3, .T. ) ;
#90 = DIRECTION ( 'NONE',  ( 4.275831445896959482E-31, 1.000000000000000000, 1.224646799147353207E-16 ) ) ;
#91 = LOCAL_TIME ( 9, 22, 16.00000000000000000, #311 ) ;
#92 = DIRECTION ( 'NONE',  ( -2.382254525458727330E-15, -0.7071067811865443531, -0.7071067811865506814 ) ) ;
#93 = ORIENTED_EDGE ( 'NONE', *, *, #304, .F. ) ;
#94 = EDGE_CURVE ( 'NONE', #56, #38, #279, .T. ) ;
#95 = VERTEX_POINT ( 'NONE', #45 ) ;
#96 = AXIS2_PLACEMENT_3D ( 'NONE', #67, #166, #250 ) ;
#97 = CARTESIAN_POINT ( 'NONE',  ( 2.444036937190193601E-13, -8.572527594031472993E-15, 70.00000000000000000 ) ) ;
#98 = CARTESIAN_POINT ( 'NONE',  ( 2.447282251207934045E-13, -2.650000000000004796, 70.00000000000000000 ) ) ;
#99 = APPROVAL ( #150, 'UNSPECIFIED' ) ;
#100 = DATE_AND_TIME ( #268, #318 ) ;
#101 = AXIS2_PLACEMENT_3D ( 'NONE', #104, #133, #33 ) ;
#102 = EDGE_LOOP ( 'NONE', ( #142, #199, #254 ) ) ;
#103 = AXIS2_PLACEMENT_3D ( 'NONE', #317, #149, #176 ) ;
#104 = CARTESIAN_POINT ( 'NONE',  ( 8.030407079339205455E-14, -2.816687638038912352E-15, 23.00000000000000000 ) ) ;
#105 = APPLICATION_PROTOCOL_DEFINITION ( 'international standard', 'config_control_design', 1994, #153 ) ;
#106 = EDGE_CURVE ( 'NONE', #95, #38, #151, .T. ) ;
#107 = COORDINATED_UNIVERSAL_TIME_OFFSET ( 1, 0, .AHEAD. ) ;
#108 = EDGE_LOOP ( 'NONE', ( #74, #63, #202, #87 ) ) ;
#109 = CARTESIAN_POINT ( 'NONE',  ( 1.432403534375476553E-30, 3.349999999999989431, 4.102566777143619969E-16 ) ) ;
#110 = AXIS2_PLACEMENT_3D ( 'NONE', #97, #174, #225 ) ;
#111 = CARTESIAN_POINT ( 'NONE',  ( 0.0000000000000000000, 0.0000000000000000000, 0.0000000000000000000 ) ) ;
#112 = CARTESIAN_POINT ( 'NONE',  ( 1.432403534375478304E-30, 3.349999999999992983, 4.102566777143624899E-16 ) ) ;
#113 = ORIENTED_EDGE ( 'NONE', *, *, #263, .T. ) ;
#114 =( LENGTH_UNIT ( ) NAMED_UNIT ( * ) SI_UNIT ( .MILLI., .METRE. ) );
#115 = AXIS2_PLACEMENT_3D ( 'NONE', #204, #298, #240 ) ;
#116 = CIRCLE ( 'NONE', #299, 3.349999999999990319 ) ;
#117 = DIRECTION ( 'NONE',  ( -3.491481338843133355E-15, 1.224646799147353207E-16, -1.000000000000000000 ) ) ;
#118 = DIRECTION ( 'NONE',  ( 1.903218546456022717E-15, 0.8571673007021097801, 0.5150380749100585964 ) ) ;
#119 = CYLINDRICAL_SURFACE ( 'NONE', #253, 3.349999999999989431 ) ;
#120 = CC_DESIGN_APPROVAL ( #330, ( #212 ) ) ;
#121 = ADVANCED_FACE ( 'NONE', ( #286 ), #126, .T. ) ;
#122 = CARTESIAN_POINT ( 'NONE',  ( 0.0000000000000000000, 0.0000000000000000000, 0.0000000000000000000 ) ) ;
#123 = LOCAL_TIME ( 9, 22, 16.00000000000000000, #265 ) ;
#124 = EDGE_CURVE ( 'NONE', #235, #301, #116, .T. ) ;
#125 = SECURITY_CLASSIFICATION_LEVEL ( 'unclassified' ) ;
#126 = PLANE ( 'NONE',  #55 ) ;
#127 = ORIENTED_EDGE ( 'NONE', *, *, #144, .T. ) ;
#128 = CALENDAR_DATE ( 2021, 3, 9 ) ;
#129 = DIRECTION ( 'NONE',  ( -3.491481338843133355E-15, 1.224646799147353207E-16, -1.000000000000000000 ) ) ;
#130 = CC_DESIGN_PERSON_AND_ORGANIZATION_ASSIGNMENT ( #26, #148, ( #260 ) ) ;
#131 = VECTOR ( 'NONE', #321, 1000.000000000000000 ) ;
#132 = EDGE_LOOP ( 'NONE', ( #312, #259, #231, #302 ) ) ;
#133 = DIRECTION ( 'NONE',  ( -3.491481338843133355E-15, 1.224646799147353207E-16, -1.000000000000000000 ) ) ;
#134 = VERTEX_POINT ( 'NONE', #122 ) ;
#135 = PERSON_AND_ORGANIZATION_ROLE ( 'design_owner' ) ;
#136 = PERSON ( 'UNSPECIFIED', 'UNSPECIFIED', 'UNSPECIFIED', ('UNSPECIFIED'), ('UNSPECIFIED'), ('UNSPECIFIED') ) ;
#137 = ORIENTED_EDGE ( 'NONE', *, *, #94, .F. ) ;
#138 = CARTESIAN_POINT ( 'NONE',  ( 2.444036937190193601E-13, 2.649999999999987477, 70.00000000000000000 ) ) ;
#139 = EDGE_CURVE ( 'NONE', #56, #246, #195, .T. ) ;
#140 = AXIS2_PLACEMENT_3D ( 'NONE', #161, #273, #244 ) ;
#141 = VECTOR ( 'NONE', #66, 1000.000000000000000 ) ;
#142 = ORIENTED_EDGE ( 'NONE', *, *, #144, .F. ) ;
#143 = CARTESIAN_POINT ( 'NONE',  ( 7.438200366958956973E-15, 3.349999999999987654, 2.012883073742341988 ) ) ;
#144 = EDGE_CURVE ( 'NONE', #134, #332, #145, .T. ) ;
#145 = LINE ( 'NONE', #76, #20 ) ;
#146 = AXIS2_PLACEMENT_3D ( 'NONE', #111, #187, #64 ) ;
#147 = EDGE_LOOP ( 'NONE', ( #327, #127, #262 ) ) ;
#148 = PERSON_AND_ORGANIZATION_ROLE ( 'design_supplier' ) ;
#149 = DIRECTION ( 'NONE',  ( 3.491481338843133355E-15, -1.224646799147353207E-16, 1.000000000000000000 ) ) ;
#150 = APPROVAL_STATUS ( 'not_yet_approved' ) ;
#151 = CIRCLE ( 'NONE', #184, 3.349999999999996092 ) ;
#152 = APPROVAL_ROLE ( '' ) ;
#153 = APPLICATION_CONTEXT ( 'configuration controlled 3d designs of mechanical parts and assemblies' ) ;
#154 = CC_DESIGN_DATE_AND_TIME_ASSIGNMENT ( #307, #77, ( #212 ) ) ;
#155 =( NAMED_UNIT ( * ) PLANE_ANGLE_UNIT ( ) SI_UNIT ( $, .RADIAN. ) );
#156 = EDGE_LOOP ( 'NONE', ( #16, #316, #21, #11 ) ) ;
#157 = VERTEX_POINT ( 'NONE', #229 ) ;
#158 = PRODUCT ( '41680', '41680', '', ( #42 ) ) ;
#159 = CC_DESIGN_SECURITY_CLASSIFICATION ( #285, ( #260 ) ) ;
#160 = CALENDAR_DATE ( 2021, 3, 9 ) ;
#161 = CARTESIAN_POINT ( 'NONE',  ( 8.030407079339205455E-14, 2.512097635958599724E-32, 23.00000000000000000 ) ) ;
#162 = DIRECTION ( 'NONE',  ( 4.275831445896959482E-31, 1.000000000000000000, 1.224646799147353207E-16 ) ) ;
#163 = ADVANCED_FACE ( 'NONE', ( #5 ), #175, .T. ) ;
#164 = DIRECTION ( 'NONE',  ( -3.491481338843133355E-15, 1.224646799147353207E-16, -1.000000000000000000 ) ) ;
#165 = AXIS2_PLACEMENT_3D ( 'NONE', #178, #288, #172 ) ;
#166 = DIRECTION ( 'NONE',  ( -3.491481338843133355E-15, 1.224646799147353207E-16, -1.000000000000000000 ) ) ;
#167 = DIRECTION ( 'NONE',  ( -3.491481338843133355E-15, 1.224646799147353207E-16, -1.000000000000000000 ) ) ;
#168 = EDGE_CURVE ( 'NONE', #157, #332, #40, .T. ) ;
#169 = CARTESIAN_POINT ( 'NONE',  ( 1.615421204653248983E-13, -3.349999999999992539, 23.00000000000000000 ) ) ;
#170 = APPROVAL_PERSON_ORGANIZATION ( #85, #51, #12 ) ;
#171 = LOCAL_TIME ( 9, 22, 16.00000000000000000, #107 ) ;
#172 = DIRECTION ( 'NONE',  ( -4.599235688088937453E-31, -1.000000000000000000, -1.294569758191651593E-16 ) ) ;
#173 = APPLICATION_CONTEXT ( 'configuration controlled 3d designs of mechanical parts and assemblies' ) ;
#174 = DIRECTION ( 'NONE',  ( -3.491481338843133355E-15, 1.224646799147353207E-16, -1.000000000000000000 ) ) ;
#175 = CONICAL_SURFACE ( 'NONE', #10, 2.649999999999995914, 0.7853981633974439491 ) ;
#176 = DIRECTION ( 'NONE',  ( -4.599235688088937453E-31, -1.000000000000000000, -1.294569758191651593E-16 ) ) ;
#177 = PERSON_AND_ORGANIZATION_ROLE ( 'creator' ) ;
#178 = CARTESIAN_POINT ( 'NONE',  ( 7.027943689244592807E-15, -2.465070813316444601E-16, 2.012883073742341544 ) ) ;
#179 = AXIS2_PLACEMENT_3D ( 'NONE', #70, #117, #219 ) ;
#180 = ORIENTED_EDGE ( 'NONE', *, *, #255, .T. ) ;
#181 = AXIS2_PLACEMENT_3D ( 'NONE', #182, #129, #272 ) ;
#182 = CARTESIAN_POINT ( 'NONE',  ( 0.0000000000000000000, 0.0000000000000000000, 0.0000000000000000000 ) ) ;
#183 = EDGE_CURVE ( 'NONE', #134, #157, #46, .T. ) ;
#184 = AXIS2_PLACEMENT_3D ( 'NONE', #276, #257, #335 ) ;
#185 = DIRECTION ( 'NONE',  ( -3.491481338843133355E-15, 1.224646799147353207E-16, -1.000000000000000000 ) ) ;
#186 = ADVANCED_FACE ( 'NONE', ( #220 ), #247, .T. ) ;
#187 = DIRECTION ( 'NONE',  ( 0.0000000000000000000, 0.0000000000000000000, 1.000000000000000000 ) ) ;
#188 = AXIS2_PLACEMENT_3D ( 'NONE', #237, #325, #334 ) ;
#189 = ADVANCED_FACE ( 'NONE', ( #71 ), #207, .T. ) ;
#190 = FACE_OUTER_BOUND ( 'NONE', #108, .T. ) ;
#191 = DIRECTION ( 'NONE',  ( 3.491481338843133355E-15, -1.224646799147353207E-16, 1.000000000000000000 ) ) ;
#192 = ORIENTED_EDGE ( 'NONE', *, *, #17, .F. ) ;
#193 = DIRECTION ( 'NONE',  ( -3.491481338843133355E-15, 1.224646799147353207E-16, -1.000000000000000000 ) ) ;
#194 = CARTESIAN_POINT ( 'NONE',  ( 0.0000000000000000000, 0.0000000000000000000, 0.0000000000000000000 ) ) ;
#195 = CIRCLE ( 'NONE', #110, 2.649999999999995914 ) ;
#196 = EDGE_CURVE ( 'NONE', #246, #95, #19, .T. ) ;
#197 = AXIS2_PLACEMENT_3D ( 'NONE', #331, #164, #162 ) ;
#198 = PERSON_AND_ORGANIZATION ( #136, #27 ) ;
#199 = ORIENTED_EDGE ( 'NONE', *, *, #183, .T. ) ;
#200 = DIRECTION ( 'NONE',  ( -3.491481338843133355E-15, 1.224646799147353207E-16, -1.000000000000000000 ) ) ;
#201 = CC_DESIGN_APPROVAL ( #99, ( #260 ) ) ;
#202 = ORIENTED_EDGE ( 'NONE', *, *, #322, .T. ) ;
#203 = DIRECTION ( 'NONE',  ( -3.491481338843133355E-15, 1.224646799147353207E-16, -1.000000000000000000 ) ) ;
#204 = CARTESIAN_POINT ( 'NONE',  ( 7.027943689244592807E-15, -2.465070813316444601E-16, 2.012883073742341544 ) ) ;
#205 = VERTEX_POINT ( 'NONE', #169 ) ;
#206 = ADVANCED_FACE ( 'NONE', ( #278 ), #44, .F. ) ;
#207 = CONICAL_SURFACE ( 'NONE', #96, 2.649999999999995914, 0.7853981633974439491 ) ;
#208 = CARTESIAN_POINT ( 'NONE',  ( 8.030407079339205455E-14, 3.349999999999987654, 23.00000000000000000 ) ) ;
#209 = ORIENTED_EDGE ( 'NONE', *, *, #304, .T. ) ;
#210 = CARTESIAN_POINT ( 'NONE',  ( 1.615421204653248226E-13, -3.350000000000004974, 69.29999999999999716 ) ) ;
#211 = DIRECTION ( 'NONE',  ( -3.491481338843133355E-15, 1.224646799147353207E-16, -1.000000000000000000 ) ) ;
#212 = PRODUCT_DEFINITION ( 'UNKNOWN', '', #260, #213 ) ;
#213 = DESIGN_CONTEXT ( 'detailed design', #173, 'design' ) ;
#214 = CARTESIAN_POINT ( 'NONE',  ( 4.407626391903267088E-14, -3.349999999999992095, 23.00000000000000000 ) ) ;
#215 = ORIENTED_EDGE ( 'NONE', *, *, #313, .T. ) ;
#216 = CLOSED_SHELL ( 'NONE', ( #249, #89, #86, #221, #121 ) ) ;
#217 = VECTOR ( 'NONE', #303, 1000.000000000000000 ) ;
#218 = EDGE_LOOP ( 'NONE', ( #209, #49, #333, #62 ) ) ;
#219 = DIRECTION ( 'NONE',  ( 0.0000000000000000000, 1.000000000000000000, 0.0000000000000000000 ) ) ;
#220 = FACE_OUTER_BOUND ( 'NONE', #156, .T. ) ;
#221 = ADVANCED_FACE ( 'NONE', ( #258 ), #119, .T. ) ;
#222 = ORIENTED_EDGE ( 'NONE', *, *, #280, .T. ) ;
#223 = AXIS2_PLACEMENT_3D ( 'NONE', #39, #167, #329 ) ;
#224 = APPROVAL_DATE_TIME ( #305, #330 ) ;
#225 = DIRECTION ( 'NONE',  ( 0.0000000000000000000, 1.000000000000000000, 0.0000000000000000000 ) ) ;
#226 = ORIENTED_EDGE ( 'NONE', *, *, #280, .F. ) ;
#227 = CC_DESIGN_DATE_AND_TIME_ASSIGNMENT ( #230, #7, ( #285 ) ) ;
#228 = CARTESIAN_POINT ( 'NONE',  ( 2.444036937190193601E-13, 1.987181712026945456E-32, 70.00000000000000000 ) ) ;
#229 = CARTESIAN_POINT ( 'NONE',  ( 7.438200366958956973E-15, 3.349999999999987654, 2.012883073742341988 ) ) ;
#230 = DATE_AND_TIME ( #309, #123 ) ;
#231 = ORIENTED_EDGE ( 'NONE', *, *, #168, .F. ) ;
#232 = CARTESIAN_POINT ( 'NONE',  ( 0.0000000000000000000, 0.0000000000000000000, 0.0000000000000000000 ) ) ;
#233 = APPROVAL_PERSON_ORGANIZATION ( #234, #330, #58 ) ;
#234 = PERSON_AND_ORGANIZATION ( #136, #27 ) ;
#235 = VERTEX_POINT ( 'NONE', #208 ) ;
#236 = DIRECTION ( 'NONE',  ( -3.491481338843133355E-15, 1.224646799147353207E-16, -1.000000000000000000 ) ) ;
#237 = CARTESIAN_POINT ( 'NONE',  ( 7.027943689244592807E-15, -2.465070813316444601E-16, 2.012883073742341544 ) ) ;
#238 = APPROVAL_STATUS ( 'not_yet_approved' ) ;
#239 = COORDINATED_UNIVERSAL_TIME_OFFSET ( 1, 0, .AHEAD. ) ;
#240 = DIRECTION ( 'NONE',  ( 4.599235688088937453E-31, 1.000000000000000000, 1.294569758191651593E-16 ) ) ;
#241 = DIRECTION ( 'NONE',  ( 0.0000000000000000000, 1.000000000000000000, 0.0000000000000000000 ) ) ;
#242 = PRODUCT_RELATED_PRODUCT_CATEGORY ( 'detail', '', ( #158 ) ) ;
#243 = EDGE_LOOP ( 'NONE', ( #8, #222, #113, #320 ) ) ;
#244 = DIRECTION ( 'NONE',  ( -4.275831445896958607E-31, -1.000000000000000000, -1.224646799147353207E-16 ) ) ;
#245 = LINE ( 'NONE', #112, #141 ) ;
#246 = VERTEX_POINT ( 'NONE', #324 ) ;
#247 = CYLINDRICAL_SURFACE ( 'NONE', #14, 3.349999999999992983 ) ;
#248 = APPLICATION_PROTOCOL_DEFINITION ( 'international standard', 'config_control_design', 1994, #173 ) ;
#249 = ADVANCED_FACE ( 'NONE', ( #81 ), #31, .T. ) ;
#250 = DIRECTION ( 'NONE',  ( 0.0000000000000000000, 1.000000000000000000, 0.0000000000000000000 ) ) ;
#251 = AXIS2_PLACEMENT_3D ( 'NONE', #59, #193, #73 ) ;
#252 = CYLINDRICAL_SURFACE ( 'NONE', #197, 3.349999999999992983 ) ;
#253 = AXIS2_PLACEMENT_3D ( 'NONE', #232, #203, #84 ) ;
#254 = ORIENTED_EDGE ( 'NONE', *, *, #168, .T. ) ;
#255 = EDGE_CURVE ( 'NONE', #205, #18, #266, .T. ) ;
#256 = CARTESIAN_POINT ( 'NONE',  ( 8.030407079339205455E-14, 3.349999999999987654, 23.00000000000000000 ) ) ;
#257 = DIRECTION ( 'NONE',  ( -3.491481338843133355E-15, 1.224646799147353207E-16, -1.000000000000000000 ) ) ;
#258 = FACE_OUTER_BOUND ( 'NONE', #243, .T. ) ;
#259 = ORIENTED_EDGE ( 'NONE', *, *, #289, .T. ) ;
#260 = PRODUCT_DEFINITION_FORMATION_WITH_SPECIFIED_SOURCE ( 'ANY', '', #158, .NOT_KNOWN. ) ;
#261 = PERSON_AND_ORGANIZATION ( #136, #27 ) ;
#262 = ORIENTED_EDGE ( 'NONE', *, *, #4, .T. ) ;
#263 = EDGE_CURVE ( 'NONE', #235, #157, #35, .T. ) ;
#264 = PERSON_AND_ORGANIZATION ( #136, #27 ) ;
#265 = COORDINATED_UNIVERSAL_TIME_OFFSET ( 1, 0, .AHEAD. ) ;
#266 = CIRCLE ( 'NONE', #101, 3.349999999999990319 ) ;
#267 = FACE_OUTER_BOUND ( 'NONE', #22, .T. ) ;
#268 = CALENDAR_DATE ( 2021, 3, 9 ) ;
#269 = CIRCLE ( 'NONE', #115, 3.349999999999988098 ) ;
#270 = AXIS2_PLACEMENT_3D ( 'NONE', #228, #200, #314 ) ;
#271 = ORIENTED_EDGE ( 'NONE', *, *, #139, .F. ) ;
#272 = DIRECTION ( 'NONE',  ( 4.275831445896958607E-31, 1.000000000000000000, 1.224646799147353207E-16 ) ) ;
#273 = DIRECTION ( 'NONE',  ( 3.491481338843133355E-15, -1.224646799147353207E-16, 1.000000000000000000 ) ) ;
#274 = PERSON_AND_ORGANIZATION ( #136, #27 ) ;
#275 = LOCAL_TIME ( 9, 22, 16.00000000000000000, #239 ) ;
#276 = CARTESIAN_POINT ( 'NONE',  ( 2.419596567818291352E-13, -8.486802318091157127E-15, 69.29999999999999716 ) ) ;
#277 = CARTESIAN_POINT ( 'NONE',  ( 7.027943689244592018E-15, -3.349999999999988542, 2.012883073742341100 ) ) ;
#278 = FACE_OUTER_BOUND ( 'NONE', #292, .T. ) ;
#279 = LINE ( 'NONE', #98, #328 ) ;
#280 = EDGE_CURVE ( 'NONE', #301, #235, #308, .T. ) ;
#281 = APPROVAL_PERSON_ORGANIZATION ( #50, #99, #152 ) ;
#282 = ORIENTED_EDGE ( 'NONE', *, *, #124, .F. ) ;
#283 = MANIFOLD_SOLID_BREP ( 'Corps-Déplacer/Copier1[1]', #34 ) ;
#284 = ADVANCED_BREP_SHAPE_REPRESENTATION ( '41680', ( #283, #47, #146 ), #80 ) ;
#285 = SECURITY_CLASSIFICATION ( '', '', #125 ) ;
#286 = FACE_OUTER_BOUND ( 'NONE', #29, .T. ) ;
#287 = PERSON_AND_ORGANIZATION_ROLE ( 'classification_officer' ) ;
#288 = DIRECTION ( 'NONE',  ( 3.491481338843133355E-15, -1.224646799147353207E-16, 1.000000000000000000 ) ) ;
#289 = EDGE_CURVE ( 'NONE', #301, #332, #79, .T. ) ;
#290 = CONICAL_SURFACE ( 'NONE', #103, 3.349999999999988098, 1.029744258676649649 ) ;
#291 = CARTESIAN_POINT ( 'NONE',  ( 8.030407079339205455E-14, 2.512097635958599724E-32, 23.00000000000000000 ) ) ;
#292 = EDGE_LOOP ( 'NONE', ( #93, #271 ) ) ;
#293 = PLANE ( 'NONE',  #140 ) ;
#294 = CARTESIAN_POINT ( 'NONE',  ( 8.030407079339205455E-14, -2.816687638038912352E-15, 23.00000000000000000 ) ) ;
#295 = CC_DESIGN_PERSON_AND_ORGANIZATION_ASSIGNMENT ( #274, #135, ( #158 ) ) ;
#296 = SHAPE_DEFINITION_REPRESENTATION ( #83, #284 ) ;
#297 = CIRCLE ( 'NONE', #179, 2.649999999999995914 ) ;
#298 = DIRECTION ( 'NONE',  ( -3.491481338843133355E-15, 1.224646799147353207E-16, -1.000000000000000000 ) ) ;
#299 = AXIS2_PLACEMENT_3D ( 'NONE', #1, #336, #25 ) ;
#300 = CC_DESIGN_APPROVAL ( #51, ( #285 ) ) ;
#301 = VERTEX_POINT ( 'NONE', #214 ) ;
#302 = ORIENTED_EDGE ( 'NONE', *, *, #263, .F. ) ;
#303 = DIRECTION ( 'NONE',  ( -2.468850131082275599E-15, 0.7071067811865445751, -0.7071067811865504593 ) ) ;
#304 = EDGE_CURVE ( 'NONE', #246, #56, #297, .T. ) ;
#305 = DATE_AND_TIME ( #160, #275 ) ;
#306 = ADVANCED_FACE ( 'NONE', ( #190 ), #252, .T. ) ;
#307 = DATE_AND_TIME ( #128, #91 ) ;
#308 = CIRCLE ( 'NONE', #61, 3.349999999999990319 ) ;
#309 = CALENDAR_DATE ( 2021, 3, 9 ) ;
#310 = FACE_OUTER_BOUND ( 'NONE', #147, .T. ) ;
#311 = COORDINATED_UNIVERSAL_TIME_OFFSET ( 1, 0, .AHEAD. ) ;
#312 = ORIENTED_EDGE ( 'NONE', *, *, #124, .T. ) ;
#313 = EDGE_CURVE ( 'NONE', #18, #205, #88, .T. ) ;
#314 = DIRECTION ( 'NONE',  ( 4.275831445896958607E-31, 1.000000000000000000, 1.224646799147353207E-16 ) ) ;
#315 =( NAMED_UNIT ( * ) SI_UNIT ( $, .STERADIAN. ) SOLID_ANGLE_UNIT ( ) );
#316 = ORIENTED_EDGE ( 'NONE', *, *, #68, .T. ) ;
#317 = CARTESIAN_POINT ( 'NONE',  ( 7.027943689244592807E-15, -2.465070813316444601E-16, 2.012883073742341544 ) ) ;
#318 = LOCAL_TIME ( 9, 22, 16.00000000000000000, #319 ) ;
#319 = COORDINATED_UNIVERSAL_TIME_OFFSET ( 1, 0, .AHEAD. ) ;
#320 = ORIENTED_EDGE ( 'NONE', *, *, #4, .F. ) ;
#321 = DIRECTION ( 'NONE',  ( -3.491481338843133355E-15, 1.224646799147353207E-16, -1.000000000000000000 ) ) ;
#322 = EDGE_CURVE ( 'NONE', #95, #18, #245, .T. ) ;
#323 = APPROVAL_STATUS ( 'not_yet_approved' ) ;
#324 = CARTESIAN_POINT ( 'NONE',  ( 2.444036937190193601E-13, 2.649999999999987477, 70.00000000000000000 ) ) ;
#325 = DIRECTION ( 'NONE',  ( -3.491481338843133355E-15, 1.224646799147353207E-16, -1.000000000000000000 ) ) ;
#326 = DIRECTION ( 'NONE',  ( 0.0000000000000000000, 1.000000000000000000, 0.0000000000000000000 ) ) ;
#327 = ORIENTED_EDGE ( 'NONE', *, *, #183, .F. ) ;
#328 = VECTOR ( 'NONE', #92, 1000.000000000000000 ) ;
#329 = DIRECTION ( 'NONE',  ( 0.0000000000000000000, 1.000000000000000000, 0.0000000000000000000 ) ) ;
#330 = APPROVAL ( #323, 'UNSPECIFIED' ) ;
#331 = CARTESIAN_POINT ( 'NONE',  ( 0.0000000000000000000, 0.0000000000000000000, 0.0000000000000000000 ) ) ;
#332 = VERTEX_POINT ( 'NONE', #277 ) ;
#333 = ORIENTED_EDGE ( 'NONE', *, *, #106, .F. ) ;
#334 = DIRECTION ( 'NONE',  ( 4.599235688088937453E-31, 1.000000000000000000, 1.294569758191651593E-16 ) ) ;
#335 = DIRECTION ( 'NONE',  ( 0.0000000000000000000, 1.000000000000000000, 0.0000000000000000000 ) ) ;
#336 = DIRECTION ( 'NONE',  ( -3.491481338843133355E-15, 1.224646799147353207E-16, -1.000000000000000000 ) ) ;
#337 = CARTESIAN_POINT ( 'NONE',  ( 2.435490692901684531E-13, -2.650000000000004796, 70.00000000000000000 ) ) ;
ENDSEC;
END-ISO-10303-21;
