ISO-10303-21;
HEADER;
FILE_DESCRIPTION (( 'STEP AP203' ),
    '1' );
FILE_NAME ('41620.step',
    '2021-10-15T13:34:49',
    ( '' ),
    ( '' ),
    'SwSTEP 2.0',
    'SolidWorks 2019',
    '' );
FILE_SCHEMA (( 'CONFIG_CONTROL_DESIGN' ));
ENDSEC;

DATA;
#1 = CARTESIAN_POINT ( 'NONE',  ( 1.082359215041371340E-13, 2.287133668559326283E-32, 31.00000000000000000 ) ) ;
#2 = ORIENTED_EDGE ( 'NONE', *, *, #131, .F. ) ;
#3 = CC_DESIGN_PERSON_AND_ORGANIZATION_ASSIGNMENT ( #28, #12, ( #38 ) ) ;
#4 = VERTEX_POINT ( 'NONE', #8 ) ;
#5 =( LENGTH_UNIT ( ) NAMED_UNIT ( * ) SI_UNIT ( .MILLI., .METRE. ) );
#6 = DIRECTION ( 'NONE',  ( -3.491481338843133355E-15, 1.224646799147353207E-16, -1.000000000000000000 ) ) ;
#7 = FACE_OUTER_BOUND ( 'NONE', #29, .T. ) ;
#8 = CARTESIAN_POINT ( 'NONE',  ( 1.082359215041371340E-13, 3.049999999999994937, 31.00000000000000000 ) ) ;
#9 = APPROVAL_STATUS ( 'not_yet_approved' ) ;
#10 = CC_DESIGN_DATE_AND_TIME_ASSIGNMENT ( #61, #91, ( #38 ) ) ;
#11 = COORDINATED_UNIVERSAL_TIME_OFFSET ( 1, 0, .AHEAD. ) ;
#12 = PERSON_AND_ORGANIZATION_ROLE ( 'creator' ) ;
#13 = CIRCLE ( 'NONE', #63, 3.049999999999998934 ) ;
#14 = CC_DESIGN_PERSON_AND_ORGANIZATION_ASSIGNMENT ( #127, #185, ( #71 ) ) ;
#15 = ADVANCED_FACE ( 'NONE', ( #130, #147 ), #203, .T. ) ;
#16 = CYLINDRICAL_SURFACE ( 'NONE', #134, 3.050000000000001599 ) ;
#17 = ORIENTED_EDGE ( 'NONE', *, *, #113, .T. ) ;
#18 = DIRECTION ( 'NONE',  ( -3.491481338843133355E-15, 1.224646799147353207E-16, -1.000000000000000000 ) ) ;
#19 = PLANE ( 'NONE',  #192 ) ;
#20 = DIRECTION ( 'NONE',  ( -3.491481338843133355E-15, 1.224646799147353207E-16, -1.000000000000000000 ) ) ;
#21 = MECHANICAL_CONTEXT ( 'NONE', #70, 'mechanical' ) ;
#22 = PERSON_AND_ORGANIZATION_ROLE ( 'design_supplier' ) ;
#23 = PRODUCT_DEFINITION_SHAPE ( 'NONE', 'NONE',  #38 ) ;
#24 = DATE_AND_TIME ( #200, #148 ) ;
#25 = ADVANCED_FACE ( 'NONE', ( #173 ), #187, .T. ) ;
#26 = CIRCLE ( 'NONE', #158, 3.050000000000003819 ) ;
#27 = AXIS2_PLACEMENT_3D ( 'NONE', #124, #20, #87 ) ;
#28 = PERSON_AND_ORGANIZATION ( #69, #114 ) ;
#29 = EDGE_LOOP ( 'NONE', ( #81 ) ) ;
#30 = ORIENTED_EDGE ( 'NONE', *, *, #113, .F. ) ;
#31 = ORIENTED_EDGE ( 'NONE', *, *, #136, .T. ) ;
#32 = AXIS2_PLACEMENT_3D ( 'NONE', #73, #39, #56 ) ;
#33 = CARTESIAN_POINT ( 'NONE',  ( 1.082359215041371340E-13, 3.049999999999994937, 31.00000000000000000 ) ) ;
#34 = CARTESIAN_POINT ( 'NONE',  ( 2.444036937190193601E-13, 1.762217744627672289E-32, 70.00000000000000000 ) ) ;
#35 = DIRECTION ( 'NONE',  ( -4.275831445896958607E-31, -1.000000000000000000, -1.224646799147353207E-16 ) ) ;
#36 = DIRECTION ( 'NONE',  ( 4.275831445896958607E-31, 1.000000000000000000, 1.224646799147353207E-16 ) ) ;
#37 = DATE_AND_TIME ( #74, #94 ) ;
#38 = PRODUCT_DEFINITION ( 'UNKNOWN', '', #71, #98 ) ;
#39 = DIRECTION ( 'NONE',  ( 0.0000000000000000000, 0.0000000000000000000, 1.000000000000000000 ) ) ;
#40 = COORDINATED_UNIVERSAL_TIME_OFFSET ( 1, 0, .AHEAD. ) ;
#41 = CALENDAR_DATE ( 2021, 15, 10 ) ;
#42 = PERSON_AND_ORGANIZATION_ROLE ( 'design_owner' ) ;
#43 = AXIS2_PLACEMENT_3D ( 'NONE', #1, #64, #190 ) ;
#44 = ADVANCED_FACE ( 'NONE', ( #104 ), #19, .F. ) ;
#45 = MANIFOLD_SOLID_BREP ( 'Corps-Déplacer/Copier1[1]', #86 ) ;
#46 = CIRCLE ( 'NONE', #164, 2.350000000000003642 ) ;
#47 = ORIENTED_EDGE ( 'NONE', *, *, #131, .T. ) ;
#48 = CC_DESIGN_DATE_AND_TIME_ASSIGNMENT ( #58, #126, ( #59 ) ) ;
#49 = UNCERTAINTY_MEASURE_WITH_UNIT (LENGTH_MEASURE( 1.000000000000000082E-05 ), #5, 'distance_accuracy_value', 'NONE');
#50 = VERTEX_POINT ( 'NONE', #121 ) ;
#51 = FACE_OUTER_BOUND ( 'NONE', #191, .T. ) ;
#52 =( NAMED_UNIT ( * ) PLANE_ANGLE_UNIT ( ) SI_UNIT ( $, .RADIAN. ) );
#53 = FACE_OUTER_BOUND ( 'NONE', #97, .T. ) ;
#54 = CARTESIAN_POINT ( 'NONE',  ( 2.419596567818291352E-13, -8.486802318091157127E-15, 69.29999999999999716 ) ) ;
#55 = APPROVAL_DATE_TIME ( #109, #129 ) ;
#56 = DIRECTION ( 'NONE',  ( 1.000000000000000000, 0.0000000000000000000, 0.0000000000000000000 ) ) ;
#57 = AXIS2_PLACEMENT_3D ( 'NONE', #88, #107, #178 ) ;
#58 = DATE_AND_TIME ( #141, #90 ) ;
#59 = SECURITY_CLASSIFICATION ( '', '', #155 ) ;
#60 = PERSON_AND_ORGANIZATION ( #69, #114 ) ;
#61 = DATE_AND_TIME ( #41, #189 ) ;
#62 = CARTESIAN_POINT ( 'NONE',  ( 2.444036937190193601E-13, -8.572527594031472993E-15, 70.00000000000000000 ) ) ;
#63 = AXIS2_PLACEMENT_3D ( 'NONE', #150, #6, #163 ) ;
#64 = DIRECTION ( 'NONE',  ( 3.491481338843133355E-15, -1.224646799147353207E-16, 1.000000000000000000 ) ) ;
#65 = CARTESIAN_POINT ( 'NONE',  ( 3.875925606546212196E-15, -1.359491696256017548E-16, 1.110109214511929787 ) ) ;
#66 = DIRECTION ( 'NONE',  ( 4.275831445896958607E-31, 1.000000000000000000, 1.224646799147353207E-16 ) ) ;
#67 =( NAMED_UNIT ( * ) SI_UNIT ( $, .STERADIAN. ) SOLID_ANGLE_UNIT ( ) );
#68 = DIRECTION ( 'NONE',  ( 3.491481338843133355E-15, -1.224646799147353207E-16, 1.000000000000000000 ) ) ;
#69 = PERSON ( 'UNSPECIFIED', 'UNSPECIFIED', 'UNSPECIFIED', ('UNSPECIFIED'), ('UNSPECIFIED'), ('UNSPECIFIED') ) ;
#70 = APPLICATION_CONTEXT ( 'configuration controlled 3d designs of mechanical parts and assemblies' ) ;
#71 = PRODUCT_DEFINITION_FORMATION_WITH_SPECIFIED_SOURCE ( 'ANY', '', #171, .NOT_KNOWN. ) ;
#72 = FACE_OUTER_BOUND ( 'NONE', #145, .T. ) ;
#73 = CARTESIAN_POINT ( 'NONE',  ( 0.0000000000000000000, 0.0000000000000000000, 0.0000000000000000000 ) ) ;
#74 = CALENDAR_DATE ( 2021, 15, 10 ) ;
#75 =( GEOMETRIC_REPRESENTATION_CONTEXT ( 3 ) GLOBAL_UNCERTAINTY_ASSIGNED_CONTEXT ( ( #49 ) ) GLOBAL_UNIT_ASSIGNED_CONTEXT ( ( #5, #52, #67 ) ) REPRESENTATION_CONTEXT ( 'NONE', 'WORKASPACE' ) );
#76 = PERSON_AND_ORGANIZATION ( #69, #114 ) ;
#77 = ADVANCED_FACE ( 'NONE', ( #72, #85 ), #133, .T. ) ;
#78 = SHAPE_DEFINITION_REPRESENTATION ( #23, #100 ) ;
#79 = COORDINATED_UNIVERSAL_TIME_OFFSET ( 1, 0, .AHEAD. ) ;
#80 = CLOSED_SHELL ( 'NONE', ( #176, #77, #25 ) ) ;
#81 = ORIENTED_EDGE ( 'NONE', *, *, #106, .T. ) ;
#82 = APPROVAL_PERSON_ORGANIZATION ( #60, #146, #183 ) ;
#83 = ADVANCED_FACE ( 'NONE', ( #51, #102 ), #16, .T. ) ;
#84 = EDGE_CURVE ( 'NONE', #108, #108, #46, .T. ) ;
#85 = FACE_OUTER_BOUND ( 'NONE', #132, .T. ) ;
#86 = CLOSED_SHELL ( 'NONE', ( #149, #83, #15, #44 ) ) ;
#87 = DIRECTION ( 'NONE',  ( 0.0000000000000000000, 1.000000000000000000, 0.0000000000000000000 ) ) ;
#88 = CARTESIAN_POINT ( 'NONE',  ( 0.0000000000000000000, 0.0000000000000000000, 0.0000000000000000000 ) ) ;
#89 = DIRECTION ( 'NONE',  ( -3.491481338843133355E-15, 1.224646799147353207E-16, -1.000000000000000000 ) ) ;
#90 = LOCAL_TIME ( 15, 34, 49.00000000000000000, #198 ) ;
#91 = DATE_TIME_ROLE ( 'creation_date' ) ;
#92 = APPROVAL_DATE_TIME ( #24, #160 ) ;
#93 = AXIS2_PLACEMENT_3D ( 'NONE', #65, #175, #195 ) ;
#94 = LOCAL_TIME ( 15, 34, 49.00000000000000000, #11 ) ;
#95 = PERSON_AND_ORGANIZATION ( #69, #114 ) ;
#96 = APPROVAL_PERSON_ORGANIZATION ( #95, #129, #157 ) ;
#97 = EDGE_LOOP ( 'NONE', ( #17 ) ) ;
#98 = DESIGN_CONTEXT ( 'detailed design', #120, 'design' ) ;
#99 = ORIENTED_EDGE ( 'NONE', *, *, #106, .F. ) ;
#100 = ADVANCED_BREP_SHAPE_REPRESENTATION ( '41620', ( #45, #119, #32 ), #75 ) ;
#101 = EDGE_LOOP ( 'NONE', ( #110 ) ) ;
#102 = FACE_OUTER_BOUND ( 'NONE', #128, .T. ) ;
#103 = CARTESIAN_POINT ( 'NONE',  ( 0.0000000000000000000, 0.0000000000000000000, 0.0000000000000000000 ) ) ;
#104 = FACE_OUTER_BOUND ( 'NONE', #201, .T. ) ;
#105 = AXIS2_PLACEMENT_3D ( 'NONE', #62, #159, #202 ) ;
#106 = EDGE_CURVE ( 'NONE', #4, #4, #13, .T. ) ;
#107 = DIRECTION ( 'NONE',  ( -3.491481338843133355E-15, 1.224646799147353207E-16, -1.000000000000000000 ) ) ;
#108 = VERTEX_POINT ( 'NONE', #162 ) ;
#109 = DATE_AND_TIME ( #112, #196 ) ;
#110 = ORIENTED_EDGE ( 'NONE', *, *, #84, .T. ) ;
#111 = APPROVAL_STATUS ( 'not_yet_approved' ) ;
#112 = CALENDAR_DATE ( 2021, 15, 10 ) ;
#113 = EDGE_CURVE ( 'NONE', #123, #123, #177, .T. ) ;
#114 = ORGANIZATION ( 'UNSPECIFIED', 'UNSPECIFIED', '' ) ;
#115 = ORIENTED_EDGE ( 'NONE', *, *, #84, .F. ) ;
#116 = CC_DESIGN_SECURITY_CLASSIFICATION ( #59, ( #71 ) ) ;
#117 = CC_DESIGN_PERSON_AND_ORGANIZATION_ASSIGNMENT ( #180, #154, ( #59 ) ) ;
#118 = EDGE_LOOP ( 'NONE', ( #161 ) ) ;
#119 = MANIFOLD_SOLID_BREP ( 'Corps-Déplacer/Copier1[2]', #80 ) ;
#120 = APPLICATION_CONTEXT ( 'configuration controlled 3d designs of mechanical parts and assemblies' ) ;
#121 = CARTESIAN_POINT ( 'NONE',  ( 2.419596567818291352E-13, 3.049999999999994937, 69.29999999999999716 ) ) ;
#122 = EDGE_LOOP ( 'NONE', ( #2 ) ) ;
#123 = VERTEX_POINT ( 'NONE', #167 ) ;
#124 = CARTESIAN_POINT ( 'NONE',  ( 1.082359215041371340E-13, -3.796405077356795115E-15, 31.00000000000000000 ) ) ;
#125 = APPROVAL_DATE_TIME ( #37, #146 ) ;
#126 = DATE_TIME_ROLE ( 'classification_date' ) ;
#127 = PERSON_AND_ORGANIZATION ( #69, #114 ) ;
#128 = EDGE_LOOP ( 'NONE', ( #47 ) ) ;
#129 = APPROVAL ( #197, 'UNSPECIFIED' ) ;
#130 = FACE_OUTER_BOUND ( 'NONE', #122, .T. ) ;
#131 = EDGE_CURVE ( 'NONE', #50, #50, #26, .T. ) ;
#132 = EDGE_LOOP ( 'NONE', ( #31 ) ) ;
#133 = CYLINDRICAL_SURFACE ( 'NONE', #57, 3.049999999999997158 ) ;
#134 = AXIS2_PLACEMENT_3D ( 'NONE', #103, #135, #36 ) ;
#135 = DIRECTION ( 'NONE',  ( -3.491481338843133355E-15, 1.224646799147353207E-16, -1.000000000000000000 ) ) ;
#136 = EDGE_CURVE ( 'NONE', #174, #174, #172, .T. ) ;
#137 = DIRECTION ( 'NONE',  ( -5.051619526261610364E-31, -1.000000000000000000, -1.421904488505581873E-16 ) ) ;
#138 = AXIS2_PLACEMENT_3D ( 'NONE', #139, #166, #35 ) ;
#139 = CARTESIAN_POINT ( 'NONE',  ( 1.082359215041371340E-13, 2.287133668559326283E-32, 31.00000000000000000 ) ) ;
#140 = PERSON_AND_ORGANIZATION ( #69, #114 ) ;
#141 = CALENDAR_DATE ( 2021, 15, 10 ) ;
#142 = CONICAL_SURFACE ( 'NONE', #143, 3.049999999999994937, 1.221730476396026610 ) ;
#143 = AXIS2_PLACEMENT_3D ( 'NONE', #194, #68, #137 ) ;
#144 = CC_DESIGN_APPROVAL ( #146, ( #38 ) ) ;
#145 = EDGE_LOOP ( 'NONE', ( #30 ) ) ;
#146 = APPROVAL ( #9, 'UNSPECIFIED' ) ;
#147 = FACE_BOUND ( 'NONE', #101, .T. ) ;
#148 = LOCAL_TIME ( 15, 34, 49.00000000000000000, #169 ) ;
#149 = ADVANCED_FACE ( 'NONE', ( #7 ), #153, .F. ) ;
#150 = CARTESIAN_POINT ( 'NONE',  ( 1.082359215041371340E-13, -3.796405077356795115E-15, 31.00000000000000000 ) ) ;
#151 = DIRECTION ( 'NONE',  ( 0.0000000000000000000, 1.000000000000000000, 0.0000000000000000000 ) ) ;
#152 = DIRECTION ( 'NONE',  ( 0.0000000000000000000, 1.000000000000000000, 0.0000000000000000000 ) ) ;
#153 = PLANE ( 'NONE',  #138 ) ;
#154 = PERSON_AND_ORGANIZATION_ROLE ( 'classification_officer' ) ;
#155 = SECURITY_CLASSIFICATION_LEVEL ( 'unclassified' ) ;
#156 = APPROVAL_ROLE ( '' ) ;
#157 = APPROVAL_ROLE ( '' ) ;
#158 = AXIS2_PLACEMENT_3D ( 'NONE', #54, #18, #151 ) ;
#159 = DIRECTION ( 'NONE',  ( -3.491481338843133355E-15, 1.224646799147353207E-16, -1.000000000000000000 ) ) ;
#160 = APPROVAL ( #111, 'UNSPECIFIED' ) ;
#161 = ORIENTED_EDGE ( 'NONE', *, *, #136, .F. ) ;
#162 = CARTESIAN_POINT ( 'NONE',  ( 2.444036937190193601E-13, 2.349999999999994760, 70.00000000000000000 ) ) ;
#163 = DIRECTION ( 'NONE',  ( 0.0000000000000000000, 1.000000000000000000, 0.0000000000000000000 ) ) ;
#164 = AXIS2_PLACEMENT_3D ( 'NONE', #165, #89, #152 ) ;
#165 = CARTESIAN_POINT ( 'NONE',  ( 2.444036937190193601E-13, -8.572527594031472993E-15, 70.00000000000000000 ) ) ;
#166 = DIRECTION ( 'NONE',  ( 3.491481338843133355E-15, -1.224646799147353207E-16, 1.000000000000000000 ) ) ;
#167 = CARTESIAN_POINT ( 'NONE',  ( 3.875925606546212985E-15, 3.049999999999994937, 1.110109214511930231 ) ) ;
#168 = CC_DESIGN_APPROVAL ( #129, ( #71 ) ) ;
#169 = COORDINATED_UNIVERSAL_TIME_OFFSET ( 1, 0, .AHEAD. ) ;
#170 = PERSON_AND_ORGANIZATION ( #69, #114 ) ;
#171 = PRODUCT ( '41620', '41620', '', ( #21 ) ) ;
#172 = CIRCLE ( 'NONE', #27, 3.049999999999998934 ) ;
#173 = FACE_OUTER_BOUND ( 'NONE', #118, .T. ) ;
#174 = VERTEX_POINT ( 'NONE', #33 ) ;
#175 = DIRECTION ( 'NONE',  ( -3.491481338843133355E-15, 1.224646799147353207E-16, -1.000000000000000000 ) ) ;
#176 = ADVANCED_FACE ( 'NONE', ( #53 ), #142, .T. ) ;
#177 = CIRCLE ( 'NONE', #93, 3.049999999999994937 ) ;
#178 = DIRECTION ( 'NONE',  ( 4.275831445896958607E-31, 1.000000000000000000, 1.224646799147353207E-16 ) ) ;
#179 = DIRECTION ( 'NONE',  ( -3.491481338843133355E-15, 1.224646799147353207E-16, -1.000000000000000000 ) ) ;
#180 = PERSON_AND_ORGANIZATION ( #69, #114 ) ;
#181 = PRODUCT_RELATED_PRODUCT_CATEGORY ( 'detail', '', ( #171 ) ) ;
#182 = APPLICATION_PROTOCOL_DEFINITION ( 'international standard', 'config_control_design', 1994, #120 ) ;
#183 = APPROVAL_ROLE ( '' ) ;
#184 = CC_DESIGN_PERSON_AND_ORGANIZATION_ASSIGNMENT ( #140, #22, ( #71 ) ) ;
#185 = PERSON_AND_ORGANIZATION_ROLE ( 'creator' ) ;
#186 = APPLICATION_PROTOCOL_DEFINITION ( 'international standard', 'config_control_design', 1994, #70 ) ;
#187 = PLANE ( 'NONE',  #43 ) ;
#188 = CC_DESIGN_PERSON_AND_ORGANIZATION_ASSIGNMENT ( #170, #42, ( #171 ) ) ;
#189 = LOCAL_TIME ( 15, 34, 49.00000000000000000, #40 ) ;
#190 = DIRECTION ( 'NONE',  ( -4.275831445896958607E-31, -1.000000000000000000, -1.224646799147353207E-16 ) ) ;
#191 = EDGE_LOOP ( 'NONE', ( #99 ) ) ;
#192 = AXIS2_PLACEMENT_3D ( 'NONE', #34, #179, #66 ) ;
#193 = CC_DESIGN_APPROVAL ( #160, ( #59 ) ) ;
#194 = CARTESIAN_POINT ( 'NONE',  ( 3.875925606546212196E-15, -1.359491696256017548E-16, 1.110109214511929787 ) ) ;
#195 = DIRECTION ( 'NONE',  ( 5.051619526261610364E-31, 1.000000000000000000, 1.421904488505581873E-16 ) ) ;
#196 = LOCAL_TIME ( 15, 34, 49.00000000000000000, #79 ) ;
#197 = APPROVAL_STATUS ( 'not_yet_approved' ) ;
#198 = COORDINATED_UNIVERSAL_TIME_OFFSET ( 1, 0, .AHEAD. ) ;
#199 = APPROVAL_PERSON_ORGANIZATION ( #76, #160, #156 ) ;
#200 = CALENDAR_DATE ( 2021, 15, 10 ) ;
#201 = EDGE_LOOP ( 'NONE', ( #115 ) ) ;
#202 = DIRECTION ( 'NONE',  ( 0.0000000000000000000, 1.000000000000000000, 0.0000000000000000000 ) ) ;
#203 = CONICAL_SURFACE ( 'NONE', #105, 2.350000000000003642, 0.7853981633974439491 ) ;
ENDSEC;
END-ISO-10303-21;
