ISO-10303-21;
HEADER;
FILE_DESCRIPTION (( 'STEP AP203' ),
    '1' );
FILE_NAME ('41603.step',
    '2021-10-15T13:34:49',
    ( '' ),
    ( '' ),
    'SwSTEP 2.0',
    'SolidWorks 2019',
    '' );
FILE_SCHEMA (( 'CONFIG_CONTROL_DESIGN' ));
ENDSEC;

DATA;
#1 = DIRECTION ( 'NONE',  ( -3.491481338843133355E-15, 1.224646799147353207E-16, -1.000000000000000000 ) ) ;
#2 = DIRECTION ( 'NONE',  ( -4.726208452484060975E-31, -1.000000000000000000, -1.330309414092656597E-16 ) ) ;
#3 = PRODUCT_DEFINITION_FORMATION_WITH_SPECIFIED_SOURCE ( 'ANY', '', #33, .NOT_KNOWN. ) ;
#4 = DIRECTION ( 'NONE',  ( 1.000000000000000000, 0.0000000000000000000, 0.0000000000000000000 ) ) ;
#5 = PERSON_AND_ORGANIZATION ( #80, #175 ) ;
#6 = COORDINATED_UNIVERSAL_TIME_OFFSET ( 1, 0, .AHEAD. ) ;
#7 = CALENDAR_DATE ( 2021, 15, 10 ) ;
#8 =( GEOMETRIC_REPRESENTATION_CONTEXT ( 3 ) GLOBAL_UNCERTAINTY_ASSIGNED_CONTEXT ( ( #103 ) ) GLOBAL_UNIT_ASSIGNED_CONTEXT ( ( #42, #17, #58 ) ) REPRESENTATION_CONTEXT ( 'NONE', 'WORKASPACE' ) );
#9 = ORIENTED_EDGE ( 'NONE', *, *, #27, .F. ) ;
#10 = ORIENTED_EDGE ( 'NONE', *, *, #31, .T. ) ;
#11 = ORIENTED_EDGE ( 'NONE', *, *, #186, .T. ) ;
#12 = EDGE_LOOP ( 'NONE', ( #108 ) ) ;
#13 = COORDINATED_UNIVERSAL_TIME_OFFSET ( 1, 0, .AHEAD. ) ;
#14 = ADVANCED_FACE ( 'NONE', ( #105, #70 ), #23, .T. ) ;
#15 = VERTEX_POINT ( 'NONE', #153 ) ;
#16 = DIRECTION ( 'NONE',  ( 0.0000000000000000000, 1.000000000000000000, 0.0000000000000000000 ) ) ;
#17 =( NAMED_UNIT ( * ) PLANE_ANGLE_UNIT ( ) SI_UNIT ( $, .RADIAN. ) );
#18 = DIRECTION ( 'NONE',  ( -3.491481338843133355E-15, 1.224646799147353207E-16, -1.000000000000000000 ) ) ;
#19 = CIRCLE ( 'NONE', #48, 0.5149999999999966827 ) ;
#20 = DATE_AND_TIME ( #117, #187 ) ;
#21 = CONICAL_SURFACE ( 'NONE', #57, 0.8149999999999919531, 1.221730476396026610 ) ;
#22 = APPROVAL_PERSON_ORGANIZATION ( #159, #63, #156 ) ;
#23 = CYLINDRICAL_SURFACE ( 'NONE', #138, 0.8149999999999949507 ) ;
#24 = DIRECTION ( 'NONE',  ( 4.275831445896958607E-31, 1.000000000000000000, 1.224646799147353207E-16 ) ) ;
#25 = AXIS2_PLACEMENT_3D ( 'NONE', #37, #82, #139 ) ;
#26 = VERTEX_POINT ( 'NONE', #86 ) ;
#27 = EDGE_CURVE ( 'NONE', #170, #170, #59, .T. ) ;
#28 = DIRECTION ( 'NONE',  ( -3.491481338843133355E-15, 1.224646799147353207E-16, -1.000000000000000000 ) ) ;
#29 = CC_DESIGN_PERSON_AND_ORGANIZATION_ASSIGNMENT ( #104, #194, ( #3 ) ) ;
#30 = COORDINATED_UNIVERSAL_TIME_OFFSET ( 1, 0, .AHEAD. ) ;
#31 = EDGE_CURVE ( 'NONE', #26, #26, #92, .T. ) ;
#32 = SHAPE_DEFINITION_REPRESENTATION ( #61, #93 ) ;
#33 = PRODUCT ( '41603', '41603', '', ( #97 ) ) ;
#34 = PERSON_AND_ORGANIZATION_ROLE ( 'design_owner' ) ;
#35 = DIRECTION ( 'NONE',  ( 0.0000000000000000000, 0.0000000000000000000, 1.000000000000000000 ) ) ;
#36 = COORDINATED_UNIVERSAL_TIME_OFFSET ( 1, 0, .AHEAD. ) ;
#37 = CARTESIAN_POINT ( 'NONE',  ( 1.316288464743861212E-13, -4.616918432785521081E-15, 37.69999999999999574 ) ) ;
#38 = AXIS2_PLACEMENT_3D ( 'NONE', #43, #1, #190 ) ;
#39 = DIRECTION ( 'NONE',  ( -3.491481338843133355E-15, 1.224646799147353207E-16, -1.000000000000000000 ) ) ;
#40 = ORIENTED_EDGE ( 'NONE', *, *, #27, .T. ) ;
#41 = LOCAL_TIME ( 15, 34, 49.00000000000000000, #13 ) ;
#42 =( LENGTH_UNIT ( ) NAMED_UNIT ( * ) SI_UNIT ( .MILLI., .METRE. ) );
#43 = CARTESIAN_POINT ( 'NONE',  ( 4.189777606611760026E-14, -1.469576158976823947E-15, 12.00000000000000000 ) ) ;
#44 = SECURITY_CLASSIFICATION ( '', '', #163 ) ;
#45 = DIRECTION ( 'NONE',  ( -3.491481338843133355E-15, 1.224646799147353207E-16, -1.000000000000000000 ) ) ;
#46 = DIRECTION ( 'NONE',  ( -4.275831445896958607E-31, -1.000000000000000000, -1.224646799147353207E-16 ) ) ;
#47 = DIRECTION ( 'NONE',  ( -4.275831445896958607E-31, -1.000000000000000000, -1.224646799147353207E-16 ) ) ;
#48 = AXIS2_PLACEMENT_3D ( 'NONE', #152, #45, #154 ) ;
#49 = ADVANCED_FACE ( 'NONE', ( #198 ), #55, .F. ) ;
#50 = PERSON_AND_ORGANIZATION ( #80, #175 ) ;
#51 = CC_DESIGN_APPROVAL ( #63, ( #3 ) ) ;
#52 = DATE_AND_TIME ( #193, #107 ) ;
#53 = DIRECTION ( 'NONE',  ( -3.491481338843133355E-15, 1.224646799147353207E-16, -1.000000000000000000 ) ) ;
#54 = PERSON_AND_ORGANIZATION ( #80, #175 ) ;
#55 = PLANE ( 'NONE',  #74 ) ;
#56 = EDGE_LOOP ( 'NONE', ( #182 ) ) ;
#57 = AXIS2_PLACEMENT_3D ( 'NONE', #115, #62, #2 ) ;
#58 =( NAMED_UNIT ( * ) SI_UNIT ( $, .STERADIAN. ) SOLID_ANGLE_UNIT ( ) );
#59 = CIRCLE ( 'NONE', #177, 0.8149999999999919531 ) ;
#60 = CARTESIAN_POINT ( 'NONE',  ( 0.0000000000000000000, 0.0000000000000000000, 0.0000000000000000000 ) ) ;
#61 = PRODUCT_DEFINITION_SHAPE ( 'NONE', 'NONE',  #149 ) ;
#62 = DIRECTION ( 'NONE',  ( 3.491481338843133355E-15, -1.224646799147353207E-16, 1.000000000000000000 ) ) ;
#63 = APPROVAL ( #174, 'UNSPECIFIED' ) ;
#64 = APPLICATION_PROTOCOL_DEFINITION ( 'international standard', 'config_control_design', 1994, #179 ) ;
#65 = APPROVAL_STATUS ( 'not_yet_approved' ) ;
#66 = CC_DESIGN_SECURITY_CLASSIFICATION ( #44, ( #3 ) ) ;
#67 = CLOSED_SHELL ( 'NONE', ( #98, #110, #157 ) ) ;
#68 = EDGE_LOOP ( 'NONE', ( #199 ) ) ;
#69 = CC_DESIGN_PERSON_AND_ORGANIZATION_ASSIGNMENT ( #50, #34, ( #33 ) ) ;
#70 = FACE_OUTER_BOUND ( 'NONE', #121, .T. ) ;
#71 = CARTESIAN_POINT ( 'NONE',  ( 4.189777606611760026E-14, 0.8149999999999919531, 12.00000000000000000 ) ) ;
#72 = AXIS2_PLACEMENT_3D ( 'NONE', #125, #18, #143 ) ;
#73 = FACE_OUTER_BOUND ( 'NONE', #165, .T. ) ;
#74 = AXIS2_PLACEMENT_3D ( 'NONE', #183, #167, #24 ) ;
#75 = CYLINDRICAL_SURFACE ( 'NONE', #191, 0.8149999999999927303 ) ;
#76 = APPROVAL_DATE_TIME ( #20, #63 ) ;
#77 = APPROVAL_DATE_TIME ( #130, #181 ) ;
#78 = APPLICATION_PROTOCOL_DEFINITION ( 'international standard', 'config_control_design', 1994, #171 ) ;
#79 = ORIENTED_EDGE ( 'NONE', *, *, #88, .F. ) ;
#80 = PERSON ( 'UNSPECIFIED', 'UNSPECIFIED', 'UNSPECIFIED', ('UNSPECIFIED'), ('UNSPECIFIED'), ('UNSPECIFIED') ) ;
#81 = PERSON_AND_ORGANIZATION_ROLE ( 'classification_officer' ) ;
#82 = DIRECTION ( 'NONE',  ( -3.491481338843133355E-15, 1.224646799147353207E-16, -1.000000000000000000 ) ) ;
#83 = EDGE_LOOP ( 'NONE', ( #180 ) ) ;
#84 = AXIS2_PLACEMENT_3D ( 'NONE', #176, #35, #4 ) ;
#85 = CC_DESIGN_DATE_AND_TIME_ASSIGNMENT ( #119, #123, ( #44 ) ) ;
#86 = CARTESIAN_POINT ( 'NONE',  ( 1.316288464743861212E-13, 0.8149999999999919531, 37.69999999999999574 ) ) ;
#87 = CARTESIAN_POINT ( 'NONE',  ( 1.035698153880373054E-15, 0.8149999999999919531, 0.2966357409269559375 ) ) ;
#88 = EDGE_CURVE ( 'NONE', #15, #15, #19, .T. ) ;
#89 = VERTEX_POINT ( 'NONE', #127 ) ;
#90 = CLOSED_SHELL ( 'NONE', ( #195, #14, #132, #49 ) ) ;
#91 = CARTESIAN_POINT ( 'NONE',  ( 4.189777606611760026E-14, 6.111521114346998729E-33, 12.00000000000000000 ) ) ;
#92 = CIRCLE ( 'NONE', #25, 0.8149999999999966160 ) ;
#93 = ADVANCED_BREP_SHAPE_REPRESENTATION ( '41603', ( #169, #96, #84 ), #8 ) ;
#94 = PRODUCT_RELATED_PRODUCT_CATEGORY ( 'detail', '', ( #33 ) ) ;
#95 = COORDINATED_UNIVERSAL_TIME_OFFSET ( 1, 0, .AHEAD. ) ;
#96 = MANIFOLD_SOLID_BREP ( 'Corps-Déplacer/Copier1[2]', #67 ) ;
#97 = MECHANICAL_CONTEXT ( 'NONE', #179, 'mechanical' ) ;
#98 = ADVANCED_FACE ( 'NONE', ( #73 ), #21, .T. ) ;
#99 = CARTESIAN_POINT ( 'NONE',  ( 0.0000000000000000000, 0.0000000000000000000, 0.0000000000000000000 ) ) ;
#100 = CIRCLE ( 'NONE', #164, 0.8149999999999935074 ) ;
#101 = DATE_AND_TIME ( #7, #168 ) ;
#102 = ORIENTED_EDGE ( 'NONE', *, *, #126, .F. ) ;
#103 = UNCERTAINTY_MEASURE_WITH_UNIT (LENGTH_MEASURE( 1.000000000000000082E-05 ), #42, 'distance_accuracy_value', 'NONE');
#104 = PERSON_AND_ORGANIZATION ( #80, #175 ) ;
#105 = FACE_OUTER_BOUND ( 'NONE', #136, .T. ) ;
#106 = EDGE_LOOP ( 'NONE', ( #79 ) ) ;
#107 = LOCAL_TIME ( 15, 34, 49.00000000000000000, #30 ) ;
#108 = ORIENTED_EDGE ( 'NONE', *, *, #126, .T. ) ;
#109 = FACE_OUTER_BOUND ( 'NONE', #56, .T. ) ;
#110 = ADVANCED_FACE ( 'NONE', ( #111, #114 ), #75, .T. ) ;
#111 = FACE_OUTER_BOUND ( 'NONE', #137, .T. ) ;
#112 = APPROVAL_PERSON_ORGANIZATION ( #146, #181, #135 ) ;
#113 = APPROVAL_STATUS ( 'not_yet_approved' ) ;
#114 = FACE_OUTER_BOUND ( 'NONE', #124, .T. ) ;
#115 = CARTESIAN_POINT ( 'NONE',  ( 1.035698153880372660E-15, -3.632740106388999653E-17, 0.2966357409269558265 ) ) ;
#116 = CC_DESIGN_APPROVAL ( #181, ( #149 ) ) ;
#117 = CALENDAR_DATE ( 2021, 15, 10 ) ;
#118 = PERSON_AND_ORGANIZATION_ROLE ( 'creator' ) ;
#119 = DATE_AND_TIME ( #197, #41 ) ;
#120 = CARTESIAN_POINT ( 'NONE',  ( 1.035698153880372660E-15, -3.632740106388999653E-17, 0.2966357409269558265 ) ) ;
#121 = EDGE_LOOP ( 'NONE', ( #10 ) ) ;
#122 = DIRECTION ( 'NONE',  ( 4.726208452484060975E-31, 1.000000000000000000, 1.330309414092656597E-16 ) ) ;
#123 = DATE_TIME_ROLE ( 'classification_date' ) ;
#124 = EDGE_LOOP ( 'NONE', ( #11 ) ) ;
#125 = CARTESIAN_POINT ( 'NONE',  ( 1.326762908760390423E-13, -4.653657836759941941E-15, 38.00000000000000000 ) ) ;
#126 = EDGE_CURVE ( 'NONE', #89, #89, #100, .T. ) ;
#127 = CARTESIAN_POINT ( 'NONE',  ( 4.189777606611760026E-14, 0.8149999999999919531, 12.00000000000000000 ) ) ;
#128 = DIRECTION ( 'NONE',  ( 4.275831445896958607E-31, 1.000000000000000000, 1.224646799147353207E-16 ) ) ;
#129 = PLANE ( 'NONE',  #151 ) ;
#130 = DATE_AND_TIME ( #161, #201 ) ;
#131 = AXIS2_PLACEMENT_3D ( 'NONE', #173, #184, #47 ) ;
#132 = ADVANCED_FACE ( 'NONE', ( #109, #142 ), #141, .T. ) ;
#133 = APPROVAL_DATE_TIME ( #101, #200 ) ;
#134 = CIRCLE ( 'NONE', #38, 0.8149999999999935074 ) ;
#135 = APPROVAL_ROLE ( '' ) ;
#136 = EDGE_LOOP ( 'NONE', ( #102 ) ) ;
#137 = EDGE_LOOP ( 'NONE', ( #9 ) ) ;
#138 = AXIS2_PLACEMENT_3D ( 'NONE', #99, #53, #196 ) ;
#139 = DIRECTION ( 'NONE',  ( 0.0000000000000000000, 1.000000000000000000, 0.0000000000000000000 ) ) ;
#140 = DIRECTION ( 'NONE',  ( -3.491481338843133355E-15, 1.224646799147353207E-16, -1.000000000000000000 ) ) ;
#141 = CONICAL_SURFACE ( 'NONE', #72, 0.5149999999999966827, 0.7853981633974453924 ) ;
#142 = FACE_BOUND ( 'NONE', #68, .T. ) ;
#143 = DIRECTION ( 'NONE',  ( 0.0000000000000000000, 1.000000000000000000, 0.0000000000000000000 ) ) ;
#144 = CARTESIAN_POINT ( 'NONE',  ( 4.189777606611760026E-14, -1.469576158976823947E-15, 12.00000000000000000 ) ) ;
#145 = DIRECTION ( 'NONE',  ( 3.491481338843133355E-15, -1.224646799147353207E-16, 1.000000000000000000 ) ) ;
#146 = PERSON_AND_ORGANIZATION ( #80, #175 ) ;
#147 = CC_DESIGN_PERSON_AND_ORGANIZATION_ASSIGNMENT ( #192, #178, ( #149 ) ) ;
#148 = DESIGN_CONTEXT ( 'detailed design', #171, 'design' ) ;
#149 = PRODUCT_DEFINITION ( 'UNKNOWN', '', #3, #148 ) ;
#150 = PERSON_AND_ORGANIZATION ( #80, #175 ) ;
#151 = AXIS2_PLACEMENT_3D ( 'NONE', #91, #145, #46 ) ;
#152 = CARTESIAN_POINT ( 'NONE',  ( 1.326762908760390423E-13, -4.653657836759941941E-15, 38.00000000000000000 ) ) ;
#153 = CARTESIAN_POINT ( 'NONE',  ( 1.326762908760390423E-13, 0.5149999999999920197, 38.00000000000000000 ) ) ;
#154 = DIRECTION ( 'NONE',  ( 0.0000000000000000000, 1.000000000000000000, 0.0000000000000000000 ) ) ;
#155 = CC_DESIGN_APPROVAL ( #200, ( #44 ) ) ;
#156 = APPROVAL_ROLE ( '' ) ;
#157 = ADVANCED_FACE ( 'NONE', ( #189 ), #129, .T. ) ;
#158 = DATE_TIME_ROLE ( 'creation_date' ) ;
#159 = PERSON_AND_ORGANIZATION ( #80, #175 ) ;
#160 = APPROVAL_PERSON_ORGANIZATION ( #54, #200, #188 ) ;
#161 = CALENDAR_DATE ( 2021, 15, 10 ) ;
#162 = CC_DESIGN_PERSON_AND_ORGANIZATION_ASSIGNMENT ( #150, #81, ( #44 ) ) ;
#163 = SECURITY_CLASSIFICATION_LEVEL ( 'unclassified' ) ;
#164 = AXIS2_PLACEMENT_3D ( 'NONE', #144, #140, #16 ) ;
#165 = EDGE_LOOP ( 'NONE', ( #40 ) ) ;
#166 = CC_DESIGN_PERSON_AND_ORGANIZATION_ASSIGNMENT ( #5, #118, ( #3 ) ) ;
#167 = DIRECTION ( 'NONE',  ( -3.491481338843133355E-15, 1.224646799147353207E-16, -1.000000000000000000 ) ) ;
#168 = LOCAL_TIME ( 15, 34, 49.00000000000000000, #36 ) ;
#169 = MANIFOLD_SOLID_BREP ( 'Corps-Déplacer/Copier1[1]', #90 ) ;
#170 = VERTEX_POINT ( 'NONE', #87 ) ;
#171 = APPLICATION_CONTEXT ( 'configuration controlled 3d designs of mechanical parts and assemblies' ) ;
#172 = PLANE ( 'NONE',  #131 ) ;
#173 = CARTESIAN_POINT ( 'NONE',  ( 4.189777606611760026E-14, 6.111521114346998729E-33, 12.00000000000000000 ) ) ;
#174 = APPROVAL_STATUS ( 'not_yet_approved' ) ;
#175 = ORGANIZATION ( 'UNSPECIFIED', 'UNSPECIFIED', '' ) ;
#176 = CARTESIAN_POINT ( 'NONE',  ( 0.0000000000000000000, 0.0000000000000000000, 0.0000000000000000000 ) ) ;
#177 = AXIS2_PLACEMENT_3D ( 'NONE', #120, #39, #122 ) ;
#178 = PERSON_AND_ORGANIZATION_ROLE ( 'creator' ) ;
#179 = APPLICATION_CONTEXT ( 'configuration controlled 3d designs of mechanical parts and assemblies' ) ;
#180 = ORIENTED_EDGE ( 'NONE', *, *, #186, .F. ) ;
#181 = APPROVAL ( #65, 'UNSPECIFIED' ) ;
#182 = ORIENTED_EDGE ( 'NONE', *, *, #31, .F. ) ;
#183 = CARTESIAN_POINT ( 'NONE',  ( 1.326762908760390423E-13, 3.861881440354189054E-33, 38.00000000000000000 ) ) ;
#184 = DIRECTION ( 'NONE',  ( 3.491481338843133355E-15, -1.224646799147353207E-16, 1.000000000000000000 ) ) ;
#185 = VERTEX_POINT ( 'NONE', #71 ) ;
#186 = EDGE_CURVE ( 'NONE', #185, #185, #134, .T. ) ;
#187 = LOCAL_TIME ( 15, 34, 49.00000000000000000, #95 ) ;
#188 = APPROVAL_ROLE ( '' ) ;
#189 = FACE_OUTER_BOUND ( 'NONE', #83, .T. ) ;
#190 = DIRECTION ( 'NONE',  ( 0.0000000000000000000, 1.000000000000000000, 0.0000000000000000000 ) ) ;
#191 = AXIS2_PLACEMENT_3D ( 'NONE', #60, #28, #128 ) ;
#192 = PERSON_AND_ORGANIZATION ( #80, #175 ) ;
#193 = CALENDAR_DATE ( 2021, 15, 10 ) ;
#194 = PERSON_AND_ORGANIZATION_ROLE ( 'design_supplier' ) ;
#195 = ADVANCED_FACE ( 'NONE', ( #202 ), #172, .F. ) ;
#196 = DIRECTION ( 'NONE',  ( 4.275831445896958607E-31, 1.000000000000000000, 1.224646799147353207E-16 ) ) ;
#197 = CALENDAR_DATE ( 2021, 15, 10 ) ;
#198 = FACE_OUTER_BOUND ( 'NONE', #106, .T. ) ;
#199 = ORIENTED_EDGE ( 'NONE', *, *, #88, .T. ) ;
#200 = APPROVAL ( #113, 'UNSPECIFIED' ) ;
#201 = LOCAL_TIME ( 15, 34, 49.00000000000000000, #6 ) ;
#202 = FACE_OUTER_BOUND ( 'NONE', #12, .T. ) ;
#203 = CC_DESIGN_DATE_AND_TIME_ASSIGNMENT ( #52, #158, ( #149 ) ) ;
ENDSEC;
END-ISO-10303-21;
