ISO-10303-21;
HEADER;
FILE_DESCRIPTION (( 'STEP AP203' ),
    '1' );
FILE_NAME ('41597.step',
    '2021-10-15T13:34:48',
    ( '' ),
    ( '' ),
    'SwSTEP 2.0',
    'SolidWorks 2019',
    '' );
FILE_SCHEMA (( 'CONFIG_CONTROL_DESIGN' ));
ENDSEC;

DATA;
#1 = DIRECTION ( 'NONE',  ( -3.491481338843133355E-15, 1.224646799147353207E-16, -1.000000000000000000 ) ) ;
#2 = FACE_OUTER_BOUND ( 'NONE', #48, .T. ) ;
#3 = DIRECTION ( 'NONE',  ( -3.491481338843133355E-15, 1.224646799147353207E-16, -1.000000000000000000 ) ) ;
#4 = CC_DESIGN_PERSON_AND_ORGANIZATION_ASSIGNMENT ( #89, #188, ( #149 ) ) ;
#5 = DIRECTION ( 'NONE',  ( -4.275831445896958607E-31, -1.000000000000000000, -1.224646799147353207E-16 ) ) ;
#6 = VERTEX_POINT ( 'NONE', #85 ) ;
#7 = ORIENTED_EDGE ( 'NONE', *, *, #102, .F. ) ;
#8 = APPLICATION_PROTOCOL_DEFINITION ( 'international standard', 'config_control_design', 1994, #58 ) ;
#9 = APPROVAL_ROLE ( '' ) ;
#10 = PERSON_AND_ORGANIZATION_ROLE ( 'classification_officer' ) ;
#11 = ORIENTED_EDGE ( 'NONE', *, *, #31, .F. ) ;
#12 = CARTESIAN_POINT ( 'NONE',  ( 9.776147748760773395E-14, -3.429011037612589276E-15, 28.00000000000000000 ) ) ;
#13 =( GEOMETRIC_REPRESENTATION_CONTEXT ( 3 ) GLOBAL_UNCERTAINTY_ASSIGNED_CONTEXT ( ( #38 ) ) GLOBAL_UNIT_ASSIGNED_CONTEXT ( ( #169, #155, #132 ) ) REPRESENTATION_CONTEXT ( 'NONE', 'WORKASPACE' ) );
#14 = CYLINDRICAL_SURFACE ( 'NONE', #119, 2.799999999999994493 ) ;
#15 = DIRECTION ( 'NONE',  ( 0.0000000000000000000, 1.000000000000000000, 0.0000000000000000000 ) ) ;
#16 = CARTESIAN_POINT ( 'NONE',  ( 2.304377683636468267E-13, -8.082668874372532400E-15, 66.00000000000000000 ) ) ;
#17 = VERTEX_POINT ( 'NONE', #195 ) ;
#18 = PRODUCT_DEFINITION_SHAPE ( 'NONE', 'NONE',  #92 ) ;
#19 = PRODUCT_DEFINITION_FORMATION_WITH_SPECIFIED_SOURCE ( 'ANY', '', #149, .NOT_KNOWN. ) ;
#20 = DIRECTION ( 'NONE',  ( -3.491481338843133355E-15, 1.224646799147353207E-16, -1.000000000000000000 ) ) ;
#21 = ADVANCED_FACE ( 'NONE', ( #157 ), #99, .T. ) ;
#22 = CIRCLE ( 'NONE', #27, 2.800000000000000266 ) ;
#23 = MECHANICAL_CONTEXT ( 'NONE', #46, 'mechanical' ) ;
#24 = PERSON_AND_ORGANIZATION_ROLE ( 'design_supplier' ) ;
#25 = COORDINATED_UNIVERSAL_TIME_OFFSET ( 1, 0, .AHEAD. ) ;
#26 = MANIFOLD_SOLID_BREP ( 'Corps-Déplacer/Copier1[2]', #78 ) ;
#27 = AXIS2_PLACEMENT_3D ( 'NONE', #66, #62, #114 ) ;
#28 = ADVANCED_FACE ( 'NONE', ( #90 ), #123, .T. ) ;
#29 = PLANE ( 'NONE',  #105 ) ;
#30 = DIRECTION ( 'NONE',  ( 0.0000000000000000000, 1.000000000000000000, 0.0000000000000000000 ) ) ;
#31 = EDGE_CURVE ( 'NONE', #69, #69, #51, .T. ) ;
#32 = CYLINDRICAL_SURFACE ( 'NONE', #128, 2.799999999999998046 ) ;
#33 = PLANE ( 'NONE',  #65 ) ;
#34 = CARTESIAN_POINT ( 'NONE',  ( 2.304377683636468267E-13, 2.299999999999992717, 66.00000000000000000 ) ) ;
#35 = CC_DESIGN_PERSON_AND_ORGANIZATION_ASSIGNMENT ( #138, #124, ( #19 ) ) ;
#36 = AXIS2_PLACEMENT_3D ( 'NONE', #203, #107, #177 ) ;
#37 = COORDINATED_UNIVERSAL_TIME_OFFSET ( 1, 0, .AHEAD. ) ;
#38 = UNCERTAINTY_MEASURE_WITH_UNIT (LENGTH_MEASURE( 1.000000000000000082E-05 ), #169, 'distance_accuracy_value', 'NONE');
#39 = LOCAL_TIME ( 15, 34, 48.00000000000000000, #104 ) ;
#40 = PERSON_AND_ORGANIZATION ( #176, #154 ) ;
#41 = CALENDAR_DATE ( 2021, 15, 10 ) ;
#42 = DATE_TIME_ROLE ( 'classification_date' ) ;
#43 = DIRECTION ( 'NONE',  ( -4.275831445896958607E-31, -1.000000000000000000, -1.224646799147353207E-16 ) ) ;
#44 = LOCAL_TIME ( 15, 34, 48.00000000000000000, #25 ) ;
#45 = DIRECTION ( 'NONE',  ( 4.275831445896958607E-31, 1.000000000000000000, 1.224646799147353207E-16 ) ) ;
#46 = APPLICATION_CONTEXT ( 'configuration controlled 3d designs of mechanical parts and assemblies' ) ;
#47 = DIRECTION ( 'NONE',  ( 4.275831445896957731E-31, 1.000000000000000000, 1.224646799147353207E-16 ) ) ;
#48 = EDGE_LOOP ( 'NONE', ( #11 ) ) ;
#49 = ORIENTED_EDGE ( 'NONE', *, *, #129, .T. ) ;
#50 = CONICAL_SURFACE ( 'NONE', #98, 2.300000000000000711, 0.7853981633974473908 ) ;
#51 = CIRCLE ( 'NONE', #197, 2.300000000000000711 ) ;
#52 = PRODUCT_RELATED_PRODUCT_CATEGORY ( 'detail', '', ( #149 ) ) ;
#53 = DATE_AND_TIME ( #41, #121 ) ;
#54 = ORIENTED_EDGE ( 'NONE', *, *, #193, .F. ) ;
#55 = ADVANCED_FACE ( 'NONE', ( #150, #115 ), #50, .T. ) ;
#56 = DATE_TIME_ROLE ( 'creation_date' ) ;
#57 = DATE_AND_TIME ( #111, #39 ) ;
#58 = APPLICATION_CONTEXT ( 'configuration controlled 3d designs of mechanical parts and assemblies' ) ;
#59 = ADVANCED_FACE ( 'NONE', ( #2 ), #29, .F. ) ;
#60 = FACE_OUTER_BOUND ( 'NONE', #103, .T. ) ;
#61 = CIRCLE ( 'NONE', #187, 2.799999999999996270 ) ;
#62 = DIRECTION ( 'NONE',  ( -3.491481338843133355E-15, 1.224646799147353207E-16, -1.000000000000000000 ) ) ;
#63 = DIRECTION ( 'NONE',  ( -3.491481338843133355E-15, 1.224646799147353207E-16, -1.000000000000000000 ) ) ;
#64 = ADVANCED_FACE ( 'NONE', ( #81, #60 ), #32, .T. ) ;
#65 = AXIS2_PLACEMENT_3D ( 'NONE', #180, #76, #5 ) ;
#66 = CARTESIAN_POINT ( 'NONE',  ( 2.286920276942252663E-13, -8.021436534415164826E-15, 65.50000000000000000 ) ) ;
#67 = DIRECTION ( 'NONE',  ( 5.502656983963545397E-31, 1.000000000000000000, 1.548860246407867527E-16 ) ) ;
#68 = CIRCLE ( 'NONE', #84, 2.799999999999992717 ) ;
#69 = VERTEX_POINT ( 'NONE', #34 ) ;
#70 = CC_DESIGN_DATE_AND_TIME_ASSIGNMENT ( #152, #42, ( #164 ) ) ;
#71 = EDGE_LOOP ( 'NONE', ( #86 ) ) ;
#72 = DIRECTION ( 'NONE',  ( 1.000000000000000000, 0.0000000000000000000, 0.0000000000000000000 ) ) ;
#73 = CC_DESIGN_SECURITY_CLASSIFICATION ( #164, ( #19 ) ) ;
#74 = CC_DESIGN_DATE_AND_TIME_ASSIGNMENT ( #53, #56, ( #92 ) ) ;
#75 = COORDINATED_UNIVERSAL_TIME_OFFSET ( 1, 0, .AHEAD. ) ;
#76 = DIRECTION ( 'NONE',  ( 3.491481338843133355E-15, -1.224646799147353207E-16, 1.000000000000000000 ) ) ;
#77 = APPROVAL_PERSON_ORGANIZATION ( #113, #117, #137 ) ;
#78 = CLOSED_SHELL ( 'NONE', ( #21, #162, #28 ) ) ;
#79 = DIRECTION ( 'NONE',  ( 4.275831445896958607E-31, 1.000000000000000000, 1.224646799147353207E-16 ) ) ;
#80 = DIRECTION ( 'NONE',  ( -3.491481338843133355E-15, 1.224646799147353207E-16, -1.000000000000000000 ) ) ;
#81 = FACE_OUTER_BOUND ( 'NONE', #93, .T. ) ;
#82 = CARTESIAN_POINT ( 'NONE',  ( 2.286920276942252663E-13, 2.799999999999992717, 65.50000000000000000 ) ) ;
#83 = ORIENTED_EDGE ( 'NONE', *, *, #193, .T. ) ;
#84 = AXIS2_PLACEMENT_3D ( 'NONE', #135, #20, #67 ) ;
#85 = CARTESIAN_POINT ( 'NONE',  ( 3.558226786337505011E-15, 2.799999999999992717, 1.019116655945377925 ) ) ;
#86 = ORIENTED_EDGE ( 'NONE', *, *, #158, .F. ) ;
#87 = APPLICATION_PROTOCOL_DEFINITION ( 'international standard', 'config_control_design', 1994, #46 ) ;
#88 = CARTESIAN_POINT ( 'NONE',  ( 0.0000000000000000000, 0.0000000000000000000, 0.0000000000000000000 ) ) ;
#89 = PERSON_AND_ORGANIZATION ( #176, #154 ) ;
#90 = FACE_OUTER_BOUND ( 'NONE', #141, .T. ) ;
#91 = SECURITY_CLASSIFICATION_LEVEL ( 'unclassified' ) ;
#92 = PRODUCT_DEFINITION ( 'UNKNOWN', '', #19, #174 ) ;
#93 = EDGE_LOOP ( 'NONE', ( #94 ) ) ;
#94 = ORIENTED_EDGE ( 'NONE', *, *, #129, .F. ) ;
#95 = APPROVAL_DATE_TIME ( #147, #171 ) ;
#96 = CARTESIAN_POINT ( 'NONE',  ( 9.776147748760773395E-14, 2.099663695726592714E-32, 28.00000000000000000 ) ) ;
#97 = PERSON_AND_ORGANIZATION ( #176, #154 ) ;
#98 = AXIS2_PLACEMENT_3D ( 'NONE', #181, #131, #30 ) ;
#99 = CONICAL_SURFACE ( 'NONE', #36, 2.799999999999992717, 1.221730476396026388 ) ;
#100 = APPROVAL_ROLE ( '' ) ;
#101 = CARTESIAN_POINT ( 'NONE',  ( 9.776147748760773395E-14, -3.429011037612589276E-15, 28.00000000000000000 ) ) ;
#102 = EDGE_CURVE ( 'NONE', #172, #172, #116, .T. ) ;
#103 = EDGE_LOOP ( 'NONE', ( #198 ) ) ;
#104 = COORDINATED_UNIVERSAL_TIME_OFFSET ( 1, 0, .AHEAD. ) ;
#105 = AXIS2_PLACEMENT_3D ( 'NONE', #192, #63, #79 ) ;
#106 = APPROVAL_STATUS ( 'not_yet_approved' ) ;
#107 = DIRECTION ( 'NONE',  ( 3.491481338843133355E-15, -1.224646799147353207E-16, 1.000000000000000000 ) ) ;
#108 = COORDINATED_UNIVERSAL_TIME_OFFSET ( 1, 0, .AHEAD. ) ;
#109 = EDGE_LOOP ( 'NONE', ( #83 ) ) ;
#110 = APPROVAL ( #173, 'UNSPECIFIED' ) ;
#111 = CALENDAR_DATE ( 2021, 15, 10 ) ;
#112 = CLOSED_SHELL ( 'NONE', ( #166, #64, #55, #59 ) ) ;
#113 = PERSON_AND_ORGANIZATION ( #176, #154 ) ;
#114 = DIRECTION ( 'NONE',  ( 0.0000000000000000000, 1.000000000000000000, 0.0000000000000000000 ) ) ;
#115 = FACE_BOUND ( 'NONE', #182, .T. ) ;
#116 = CIRCLE ( 'NONE', #159, 2.799999999999996270 ) ;
#117 = APPROVAL ( #106, 'UNSPECIFIED' ) ;
#118 = DIRECTION ( 'NONE',  ( 0.0000000000000000000, 1.000000000000000000, 0.0000000000000000000 ) ) ;
#119 = AXIS2_PLACEMENT_3D ( 'NONE', #126, #1, #47 ) ;
#120 = PERSON_AND_ORGANIZATION_ROLE ( 'creator' ) ;
#121 = LOCAL_TIME ( 15, 34, 48.00000000000000000, #37 ) ;
#122 = APPROVAL_DATE_TIME ( #57, #110 ) ;
#123 = PLANE ( 'NONE',  #189 ) ;
#124 = PERSON_AND_ORGANIZATION_ROLE ( 'creator' ) ;
#125 = LOCAL_TIME ( 15, 34, 48.00000000000000000, #75 ) ;
#126 = CARTESIAN_POINT ( 'NONE',  ( 0.0000000000000000000, 0.0000000000000000000, 0.0000000000000000000 ) ) ;
#127 = DIRECTION ( 'NONE',  ( -3.491481338843133355E-15, 1.224646799147353207E-16, -1.000000000000000000 ) ) ;
#128 = AXIS2_PLACEMENT_3D ( 'NONE', #165, #127, #45 ) ;
#129 = EDGE_CURVE ( 'NONE', #17, #17, #61, .T. ) ;
#130 = ORIENTED_EDGE ( 'NONE', *, *, #102, .T. ) ;
#131 = DIRECTION ( 'NONE',  ( -3.491481338843133355E-15, 1.224646799147353207E-16, -1.000000000000000000 ) ) ;
#132 =( NAMED_UNIT ( * ) SI_UNIT ( $, .STERADIAN. ) SOLID_ANGLE_UNIT ( ) );
#133 = LOCAL_TIME ( 15, 34, 48.00000000000000000, #108 ) ;
#134 = ADVANCED_BREP_SHAPE_REPRESENTATION ( '41597', ( #168, #26, #156 ), #13 ) ;
#135 = CARTESIAN_POINT ( 'NONE',  ( 3.558226786337503434E-15, -1.248057950661260864E-16, 1.019116655945377481 ) ) ;
#136 = CC_DESIGN_PERSON_AND_ORGANIZATION_ASSIGNMENT ( #160, #10, ( #164 ) ) ;
#137 = APPROVAL_ROLE ( '' ) ;
#138 = PERSON_AND_ORGANIZATION ( #176, #154 ) ;
#139 = DATE_AND_TIME ( #186, #133 ) ;
#140 = APPROVAL_PERSON_ORGANIZATION ( #97, #171, #100 ) ;
#141 = EDGE_LOOP ( 'NONE', ( #7 ) ) ;
#142 = DIRECTION ( 'NONE',  ( 0.0000000000000000000, 0.0000000000000000000, 1.000000000000000000 ) ) ;
#143 = EDGE_LOOP ( 'NONE', ( #49 ) ) ;
#144 = APPROVAL_STATUS ( 'not_yet_approved' ) ;
#145 = CC_DESIGN_APPROVAL ( #110, ( #19 ) ) ;
#146 = DIRECTION ( 'NONE',  ( -3.491481338843133355E-15, 1.224646799147353207E-16, -1.000000000000000000 ) ) ;
#147 = DATE_AND_TIME ( #190, #125 ) ;
#148 = SHAPE_DEFINITION_REPRESENTATION ( #18, #134 ) ;
#149 = PRODUCT ( '41597', '41597', '', ( #23 ) ) ;
#150 = FACE_OUTER_BOUND ( 'NONE', #71, .T. ) ;
#151 = ORIENTED_EDGE ( 'NONE', *, *, #31, .T. ) ;
#152 = DATE_AND_TIME ( #202, #44 ) ;
#153 = DIRECTION ( 'NONE',  ( 0.0000000000000000000, 1.000000000000000000, 0.0000000000000000000 ) ) ;
#154 = ORGANIZATION ( 'UNSPECIFIED', 'UNSPECIFIED', '' ) ;
#155 =( NAMED_UNIT ( * ) PLANE_ANGLE_UNIT ( ) SI_UNIT ( $, .RADIAN. ) );
#156 = AXIS2_PLACEMENT_3D ( 'NONE', #88, #142, #72 ) ;
#157 = FACE_OUTER_BOUND ( 'NONE', #109, .T. ) ;
#158 = EDGE_CURVE ( 'NONE', #185, #185, #22, .T. ) ;
#159 = AXIS2_PLACEMENT_3D ( 'NONE', #101, #146, #15 ) ;
#160 = PERSON_AND_ORGANIZATION ( #176, #154 ) ;
#161 = EDGE_LOOP ( 'NONE', ( #54 ) ) ;
#162 = ADVANCED_FACE ( 'NONE', ( #183, #191 ), #14, .T. ) ;
#163 = FACE_OUTER_BOUND ( 'NONE', #143, .T. ) ;
#164 = SECURITY_CLASSIFICATION ( '', '', #91 ) ;
#165 = CARTESIAN_POINT ( 'NONE',  ( 0.0000000000000000000, 0.0000000000000000000, 0.0000000000000000000 ) ) ;
#166 = ADVANCED_FACE ( 'NONE', ( #163 ), #33, .F. ) ;
#167 = DIRECTION ( 'NONE',  ( 3.491481338843133355E-15, -1.224646799147353207E-16, 1.000000000000000000 ) ) ;
#168 = MANIFOLD_SOLID_BREP ( 'Corps-Déplacer/Copier1[1]', #112 ) ;
#169 =( LENGTH_UNIT ( ) NAMED_UNIT ( * ) SI_UNIT ( .MILLI., .METRE. ) );
#170 = CC_DESIGN_APPROVAL ( #171, ( #164 ) ) ;
#171 = APPROVAL ( #144, 'UNSPECIFIED' ) ;
#172 = VERTEX_POINT ( 'NONE', #194 ) ;
#173 = APPROVAL_STATUS ( 'not_yet_approved' ) ;
#174 = DESIGN_CONTEXT ( 'detailed design', #58, 'design' ) ;
#175 = APPROVAL_PERSON_ORGANIZATION ( #40, #110, #9 ) ;
#176 = PERSON ( 'UNSPECIFIED', 'UNSPECIFIED', 'UNSPECIFIED', ('UNSPECIFIED'), ('UNSPECIFIED'), ('UNSPECIFIED') ) ;
#177 = DIRECTION ( 'NONE',  ( -5.502656983963545397E-31, -1.000000000000000000, -1.548860246407867527E-16 ) ) ;
#178 = PERSON_AND_ORGANIZATION ( #176, #154 ) ;
#179 = CC_DESIGN_PERSON_AND_ORGANIZATION_ASSIGNMENT ( #178, #24, ( #19 ) ) ;
#180 = CARTESIAN_POINT ( 'NONE',  ( 9.776147748760773395E-14, 2.099663695726592714E-32, 28.00000000000000000 ) ) ;
#181 = CARTESIAN_POINT ( 'NONE',  ( 2.304377683636468267E-13, -8.082668874372532400E-15, 66.00000000000000000 ) ) ;
#182 = EDGE_LOOP ( 'NONE', ( #151 ) ) ;
#183 = FACE_OUTER_BOUND ( 'NONE', #161, .T. ) ;
#184 = CC_DESIGN_APPROVAL ( #117, ( #92 ) ) ;
#185 = VERTEX_POINT ( 'NONE', #82 ) ;
#186 = CALENDAR_DATE ( 2021, 15, 10 ) ;
#187 = AXIS2_PLACEMENT_3D ( 'NONE', #12, #80, #153 ) ;
#188 = PERSON_AND_ORGANIZATION_ROLE ( 'design_owner' ) ;
#189 = AXIS2_PLACEMENT_3D ( 'NONE', #96, #167, #43 ) ;
#190 = CALENDAR_DATE ( 2021, 15, 10 ) ;
#191 = FACE_OUTER_BOUND ( 'NONE', #200, .T. ) ;
#192 = CARTESIAN_POINT ( 'NONE',  ( 2.304377683636468267E-13, 1.724723750061124754E-32, 66.00000000000000000 ) ) ;
#193 = EDGE_CURVE ( 'NONE', #6, #6, #68, .T. ) ;
#194 = CARTESIAN_POINT ( 'NONE',  ( 9.776147748760773395E-14, 2.799999999999992717, 28.00000000000000000 ) ) ;
#195 = CARTESIAN_POINT ( 'NONE',  ( 9.776147748760773395E-14, 2.799999999999992717, 28.00000000000000000 ) ) ;
#196 = APPROVAL_DATE_TIME ( #139, #117 ) ;
#197 = AXIS2_PLACEMENT_3D ( 'NONE', #16, #3, #118 ) ;
#198 = ORIENTED_EDGE ( 'NONE', *, *, #158, .T. ) ;
#199 = PERSON_AND_ORGANIZATION ( #176, #154 ) ;
#200 = EDGE_LOOP ( 'NONE', ( #130 ) ) ;
#201 = CC_DESIGN_PERSON_AND_ORGANIZATION_ASSIGNMENT ( #199, #120, ( #92 ) ) ;
#202 = CALENDAR_DATE ( 2021, 15, 10 ) ;
#203 = CARTESIAN_POINT ( 'NONE',  ( 3.558226786337503434E-15, -1.248057950661260864E-16, 1.019116655945377481 ) ) ;
ENDSEC;
END-ISO-10303-21;
