ISO-10303-21;
HEADER;
FILE_DESCRIPTION (( 'STEP AP203' ),
    '1' );
FILE_NAME ('41594.step',
    '2021-09-03T07:22:15',
    ( '' ),
    ( '' ),
    'SwSTEP 2.0',
    'SolidWorks 2019',
    '' );
FILE_SCHEMA (( 'CONFIG_CONTROL_DESIGN' ));
ENDSEC;

DATA;
#1 = FACE_OUTER_BOUND ( 'NONE', #217, .T. ) ;
#2 = EDGE_LOOP ( 'NONE', ( #209, #284 ) ) ;
#3 = CARTESIAN_POINT ( 'NONE',  ( 5.874102188025337718E-15, -2.060357694712254640E-16, 1.682409733277183017 ) ) ;
#4 = APPROVAL_DATE_TIME ( #204, #187 ) ;
#5 = EDGE_LOOP ( 'NONE', ( #259, #93, #81, #210 ) ) ;
#6 = DIRECTION ( 'NONE',  ( 0.0000000000000000000, 0.0000000000000000000, 1.000000000000000000 ) ) ;
#7 = EDGE_CURVE ( 'NONE', #282, #68, #256, .T. ) ;
#8 = ORIENTED_EDGE ( 'NONE', *, *, #254, .T. ) ;
#9 = PERSON_AND_ORGANIZATION ( #295, #278 ) ;
#10 = DIRECTION ( 'NONE',  ( 0.0000000000000000000, 1.000000000000000000, 0.0000000000000000000 ) ) ;
#11 = PERSON_AND_ORGANIZATION ( #295, #278 ) ;
#12 = PRODUCT ( '41594', '41594', '', ( #159 ) ) ;
#13 = PERSON_AND_ORGANIZATION_ROLE ( 'creator' ) ;
#14 = VERTEX_POINT ( 'NONE', #277 ) ;
#15 = APPROVAL ( #116, 'UNSPECIFIED' ) ;
#16 = LINE ( 'NONE', #76, #34 ) ;
#17 = AXIS2_PLACEMENT_3D ( 'NONE', #222, #70, #327 ) ;
#18 = APPROVAL_STATUS ( 'not_yet_approved' ) ;
#19 = ADVANCED_FACE ( 'NONE', ( #111 ), #266, .T. ) ;
#20 = DIRECTION ( 'NONE',  ( 4.275831445896958607E-31, 1.000000000000000000, 1.224646799147353207E-16 ) ) ;
#21 = CLOSED_SHELL ( 'NONE', ( #125, #223, #19, #104, #113 ) ) ;
#22 = EDGE_LOOP ( 'NONE', ( #163, #8 ) ) ;
#23 = VERTEX_POINT ( 'NONE', #280 ) ;
#24 = COORDINATED_UNIVERSAL_TIME_OFFSET ( 1, 0, .AHEAD. ) ;
#25 = DIRECTION ( 'NONE',  ( 0.0000000000000000000, 1.000000000000000000, 0.0000000000000000000 ) ) ;
#26 = PERSON_AND_ORGANIZATION ( #295, #278 ) ;
#27 = CC_DESIGN_APPROVAL ( #83, ( #234 ) ) ;
#28 = DIRECTION ( 'NONE',  ( -3.491481338843133355E-15, 1.224646799147353207E-16, -1.000000000000000000 ) ) ;
#29 = CC_DESIGN_DATE_AND_TIME_ASSIGNMENT ( #250, #299, ( #79 ) ) ;
#30 = CARTESIAN_POINT ( 'NONE',  ( 2.283428795603408836E-13, 2.799999999999993605, 65.40000000000000568 ) ) ;
#31 = CALENDAR_DATE ( 2021, 3, 9 ) ;
#32 = CALENDAR_DATE ( 2021, 3, 9 ) ;
#33 = CARTESIAN_POINT ( 'NONE',  ( 6.217003291786597237E-15, 2.799999999999993605, 1.682409733277183461 ) ) ;
#34 = VECTOR ( 'NONE', #173, 1000.000000000000000 ) ;
#35 =( NAMED_UNIT ( * ) PLANE_ANGLE_UNIT ( ) SI_UNIT ( $, .RADIAN. ) );
#36 = DIRECTION ( 'NONE',  ( 0.0000000000000000000, 1.000000000000000000, 0.0000000000000000000 ) ) ;
#37 = FACE_OUTER_BOUND ( 'NONE', #106, .T. ) ;
#38 = COORDINATED_UNIVERSAL_TIME_OFFSET ( 1, 0, .AHEAD. ) ;
#39 = ORIENTED_EDGE ( 'NONE', *, *, #275, .F. ) ;
#40 = COORDINATED_UNIVERSAL_TIME_OFFSET ( 1, 0, .AHEAD. ) ;
#41 = DIRECTION ( 'NONE',  ( 1.903218546456021928E-15, 0.8571673007021098911, 0.5150380749100583744 ) ) ;
#42 = CIRCLE ( 'NONE', #207, 2.799999999999993605 ) ;
#43 = AXIS2_PLACEMENT_3D ( 'NONE', #301, #242, #115 ) ;
#44 = CARTESIAN_POINT ( 'NONE',  ( 5.874102188025337718E-15, -2.060357694712254640E-16, 1.682409733277183017 ) ) ;
#45 = PERSON_AND_ORGANIZATION ( #295, #278 ) ;
#46 = EDGE_CURVE ( 'NONE', #181, #246, #283, .T. ) ;
#47 = PLANE ( 'NONE',  #267 ) ;
#48 = DIRECTION ( 'NONE',  ( 4.275831445896957731E-31, 1.000000000000000000, 1.224646799147353207E-16 ) ) ;
#49 = AXIS2_PLACEMENT_3D ( 'NONE', #140, #119, #69 ) ;
#50 = CARTESIAN_POINT ( 'NONE',  ( 5.874102188025337718E-15, -2.060357694712254640E-16, 1.682409733277183017 ) ) ;
#51 = FACE_OUTER_BOUND ( 'NONE', #2, .T. ) ;
#52 = ADVANCED_FACE ( 'NONE', ( #1 ), #334, .T. ) ;
#53 = VECTOR ( 'NONE', #28, 1000.000000000000000 ) ;
#54 = ORIENTED_EDGE ( 'NONE', *, *, #153, .F. ) ;
#55 = LOCAL_TIME ( 9, 22, 15.00000000000000000, #24 ) ;
#56 = MANIFOLD_SOLID_BREP ( 'Corps-Déplacer/Copier1[1]', #134 ) ;
#57 = CARTESIAN_POINT ( 'NONE',  ( 0.0000000000000000000, 0.0000000000000000000, 0.0000000000000000000 ) ) ;
#58 = EDGE_LOOP ( 'NONE', ( #279, #263, #122 ) ) ;
#59 = VERTEX_POINT ( 'NONE', #133 ) ;
#60 = DIRECTION ( 'NONE',  ( -3.491481338843133355E-15, 1.224646799147353207E-16, -1.000000000000000000 ) ) ;
#61 = CC_DESIGN_PERSON_AND_ORGANIZATION_ASSIGNMENT ( #45, #103, ( #108 ) ) ;
#62 = DIRECTION ( 'NONE',  ( -3.491481338843133355E-15, 1.224646799147353207E-16, -1.000000000000000000 ) ) ;
#63 = CYLINDRICAL_SURFACE ( 'NONE', #232, 2.799999999999998490 ) ;
#64 = ORIENTED_EDGE ( 'NONE', *, *, #7, .F. ) ;
#65 = AXIS2_PLACEMENT_3D ( 'NONE', #224, #331, #276 ) ;
#66 =( GEOMETRIC_REPRESENTATION_CONTEXT ( 3 ) GLOBAL_UNCERTAINTY_ASSIGNED_CONTEXT ( ( #293 ) ) GLOBAL_UNIT_ASSIGNED_CONTEXT ( ( #238, #35, #227 ) ) REPRESENTATION_CONTEXT ( 'NONE', 'WORKASPACE' ) );
#67 = DIRECTION ( 'NONE',  ( 0.0000000000000000000, 1.000000000000000000, 0.0000000000000000000 ) ) ;
#68 = VERTEX_POINT ( 'NONE', #231 ) ;
#69 = DIRECTION ( 'NONE',  ( 0.0000000000000000000, 1.000000000000000000, 0.0000000000000000000 ) ) ;
#70 = DIRECTION ( 'NONE',  ( -3.491481338843133355E-15, 1.224646799147353207E-16, -1.000000000000000000 ) ) ;
#71 = VECTOR ( 'NONE', #105, 1000.000000000000114 ) ;
#72 = LINE ( 'NONE', #170, #305 ) ;
#73 = PRODUCT_DEFINITION_SHAPE ( 'NONE', 'NONE',  #234 ) ;
#74 = DIRECTION ( 'NONE',  ( 5.502656983963543645E-31, 1.000000000000000000, 1.548860246407867034E-16 ) ) ;
#75 = CARTESIAN_POINT ( 'NONE',  ( 2.304377683636468267E-13, 1.649735760928032421E-32, 66.00000000000000000 ) ) ;
#76 = CARTESIAN_POINT ( 'NONE',  ( 3.429011037612570540E-16, -2.799999999999994937, -3.429011037612594206E-16 ) ) ;
#77 = PERSON_AND_ORGANIZATION_ROLE ( 'design_supplier' ) ;
#78 = EDGE_CURVE ( 'NONE', #258, #246, #292, .T. ) ;
#79 = SECURITY_CLASSIFICATION ( '', '', #260 ) ;
#80 = DIRECTION ( 'NONE',  ( -3.491481338843133355E-15, 1.224646799147353207E-16, -1.000000000000000000 ) ) ;
#81 = ORIENTED_EDGE ( 'NONE', *, *, #245, .F. ) ;
#82 = ORIENTED_EDGE ( 'NONE', *, *, #302, .F. ) ;
#83 = APPROVAL ( #261, 'UNSPECIFIED' ) ;
#84 = VECTOR ( 'NONE', #41, 1000.000000000000114 ) ;
#85 = DIRECTION ( 'NONE',  ( 5.502656983963543645E-31, 1.000000000000000000, 1.548860246407867034E-16 ) ) ;
#86 = APPLICATION_PROTOCOL_DEFINITION ( 'international standard', 'config_control_design', 1994, #304 ) ;
#87 = ORIENTED_EDGE ( 'NONE', *, *, #177, .T. ) ;
#88 = EDGE_CURVE ( 'NONE', #68, #23, #110, .T. ) ;
#89 = DIRECTION ( 'NONE',  ( 1.798245827342159528E-15, -0.8571673007021100021, 0.5150380749100580413 ) ) ;
#90 = ADVANCED_BREP_SHAPE_REPRESENTATION ( '41594', ( #56, #274, #98 ), #66 ) ;
#91 = VECTOR ( 'NONE', #162, 1000.000000000000000 ) ;
#92 = CARTESIAN_POINT ( 'NONE',  ( 7.332110811570580046E-14, 2.799999999999993605, 21.00000000000000000 ) ) ;
#93 = ORIENTED_EDGE ( 'NONE', *, *, #145, .T. ) ;
#94 = EDGE_CURVE ( 'NONE', #157, #68, #185, .T. ) ;
#95 = DIRECTION ( 'NONE',  ( -3.491481338843133355E-15, 1.224646799147353207E-16, -1.000000000000000000 ) ) ;
#96 = APPROVAL_ROLE ( '' ) ;
#97 = EDGE_LOOP ( 'NONE', ( #328, #323, #235, #39 ) ) ;
#98 = AXIS2_PLACEMENT_3D ( 'NONE', #57, #6, #161 ) ;
#99 = APPROVAL_ROLE ( '' ) ;
#100 = AXIS2_PLACEMENT_3D ( 'NONE', #3, #178, #85 ) ;
#101 = FACE_OUTER_BOUND ( 'NONE', #5, .T. ) ;
#102 = AXIS2_PLACEMENT_3D ( 'NONE', #193, #211, #67 ) ;
#103 = PERSON_AND_ORGANIZATION_ROLE ( 'creator' ) ;
#104 = ADVANCED_FACE ( 'NONE', ( #37 ), #320, .T. ) ;
#105 = DIRECTION ( 'NONE',  ( -2.382254525458724175E-15, -0.7071067811865451302, -0.7071067811865499042 ) ) ;
#106 = EDGE_LOOP ( 'NONE', ( #147, #158, #214, #296 ) ) ;
#107 = ORIENTED_EDGE ( 'NONE', *, *, #275, .T. ) ;
#108 = PRODUCT_DEFINITION_FORMATION_WITH_SPECIFIED_SOURCE ( 'ANY', '', #12, .NOT_KNOWN. ) ;
#109 = CARTESIAN_POINT ( 'NONE',  ( 2.296964856617806804E-13, -2.200000000000009948, 66.00000000000000000 ) ) ;
#110 = LINE ( 'NONE', #156, #155 ) ;
#111 = FACE_OUTER_BOUND ( 'NONE', #58, .T. ) ;
#112 = CONICAL_SURFACE ( 'NONE', #200, 2.799999999999993605, 1.029744258676649871 ) ;
#113 = ADVANCED_FACE ( 'NONE', ( #51 ), #152, .T. ) ;
#114 = FACE_OUTER_BOUND ( 'NONE', #255, .T. ) ;
#115 = DIRECTION ( 'NONE',  ( 0.0000000000000000000, 1.000000000000000000, 0.0000000000000000000 ) ) ;
#116 = APPROVAL_STATUS ( 'not_yet_approved' ) ;
#117 = LINE ( 'NONE', #186, #190 ) ;
#118 = AXIS2_PLACEMENT_3D ( 'NONE', #216, #195, #171 ) ;
#119 = DIRECTION ( 'NONE',  ( -3.491481338843133355E-15, 1.224646799147353207E-16, -1.000000000000000000 ) ) ;
#120 = CC_DESIGN_DATE_AND_TIME_ASSIGNMENT ( #189, #241, ( #234 ) ) ;
#121 = DIRECTION ( 'NONE',  ( -3.491481338843133355E-15, 1.224646799147353207E-16, -1.000000000000000000 ) ) ;
#122 = ORIENTED_EDGE ( 'NONE', *, *, #78, .T. ) ;
#123 = CARTESIAN_POINT ( 'NONE',  ( 2.304377683636468267E-13, 2.199999999999993516, 66.00000000000000000 ) ) ;
#124 = AXIS2_PLACEMENT_3D ( 'NONE', #248, #148, #249 ) ;
#125 = ADVANCED_FACE ( 'NONE', ( #101 ), #127, .T. ) ;
#126 = CARTESIAN_POINT ( 'NONE',  ( 5.874102188025337718E-15, -2.060357694712254640E-16, 1.682409733277183017 ) ) ;
#127 = CYLINDRICAL_SURFACE ( 'NONE', #179, 2.799999999999994937 ) ;
#128 = DESIGN_CONTEXT ( 'detailed design', #304, 'design' ) ;
#129 = CARTESIAN_POINT ( 'NONE',  ( 2.304377683636468267E-13, -8.082668874372532400E-15, 66.00000000000000000 ) ) ;
#130 = APPROVAL_PERSON_ORGANIZATION ( #9, #15, #96 ) ;
#131 = PRODUCT_RELATED_PRODUCT_CATEGORY ( 'detail', '', ( #12 ) ) ;
#132 = CALENDAR_DATE ( 2021, 3, 9 ) ;
#133 = CARTESIAN_POINT ( 'NONE',  ( 7.332110811570580046E-14, 2.799999999999993605, 21.00000000000000000 ) ) ;
#134 = CLOSED_SHELL ( 'NONE', ( #154, #329, #206, #172, #52, #265 ) ) ;
#135 = APPROVAL_PERSON_ORGANIZATION ( #182, #83, #136 ) ;
#136 = APPROVAL_ROLE ( '' ) ;
#137 = DIRECTION ( 'NONE',  ( -5.502656983963543645E-31, -1.000000000000000000, -1.548860246407867034E-16 ) ) ;
#138 = DATE_AND_TIME ( #264, #321 ) ;
#139 = CARTESIAN_POINT ( 'NONE',  ( 0.0000000000000000000, 0.0000000000000000000, 0.0000000000000000000 ) ) ;
#140 = CARTESIAN_POINT ( 'NONE',  ( 7.332110811570580046E-14, -2.571758278209441661E-15, 21.00000000000000000 ) ) ;
#141 = EDGE_CURVE ( 'NONE', #157, #59, #72, .T. ) ;
#142 = CYLINDRICAL_SURFACE ( 'NONE', #220, 2.799999999999998490 ) ;
#143 = APPROVAL_DATE_TIME ( #138, #83 ) ;
#144 = FACE_OUTER_BOUND ( 'NONE', #330, .T. ) ;
#145 = EDGE_CURVE ( 'NONE', #294, #258, #16, .T. ) ;
#146 = AXIS2_PLACEMENT_3D ( 'NONE', #50, #332, #137 ) ;
#147 = ORIENTED_EDGE ( 'NONE', *, *, #145, .F. ) ;
#148 = DIRECTION ( 'NONE',  ( -3.491481338843133355E-15, 1.224646799147353207E-16, -1.000000000000000000 ) ) ;
#149 = CONICAL_SURFACE ( 'NONE', #306, 2.200000000000001954, 0.7853981633974450594 ) ;
#150 = PERSON_AND_ORGANIZATION ( #295, #278 ) ;
#151 = ORIENTED_EDGE ( 'NONE', *, *, #254, .F. ) ;
#152 = PLANE ( 'NONE',  #65 ) ;
#153 = EDGE_CURVE ( 'NONE', #59, #23, #219, .T. ) ;
#154 = ADVANCED_FACE ( 'NONE', ( #257 ), #149, .T. ) ;
#155 = VECTOR ( 'NONE', #228, 1000.000000000000000 ) ;
#156 = CARTESIAN_POINT ( 'NONE',  ( 3.429011037612575471E-16, -2.799999999999998490, -3.429011037612599137E-16 ) ) ;
#157 = VERTEX_POINT ( 'NONE', #30 ) ;
#158 = ORIENTED_EDGE ( 'NONE', *, *, #303, .T. ) ;
#159 = MECHANICAL_CONTEXT ( 'NONE', #202, 'mechanical' ) ;
#160 = CC_DESIGN_SECURITY_CLASSIFICATION ( #79, ( #108 ) ) ;
#161 = DIRECTION ( 'NONE',  ( 1.000000000000000000, 0.0000000000000000000, 0.0000000000000000000 ) ) ;
#162 = DIRECTION ( 'NONE',  ( -2.468850131082272838E-15, 0.7071067811865453523, -0.7071067811865496822 ) ) ;
#163 = ORIENTED_EDGE ( 'NONE', *, *, #153, .T. ) ;
#164 = CIRCLE ( 'NONE', #17, 2.799999999999996270 ) ;
#165 = CARTESIAN_POINT ( 'NONE',  ( 0.0000000000000000000, 0.0000000000000000000, 0.0000000000000000000 ) ) ;
#166 = ORIENTED_EDGE ( 'NONE', *, *, #218, .T. ) ;
#167 = FACE_OUTER_BOUND ( 'NONE', #315, .T. ) ;
#168 = CARTESIAN_POINT ( 'NONE',  ( 5.874102188025336140E-15, -2.799999999999993605, 1.682409733277182573 ) ) ;
#169 = CIRCLE ( 'NONE', #253, 2.800000000000001155 ) ;
#170 = CARTESIAN_POINT ( 'NONE',  ( 1.197232804851147849E-30, 2.799999999999998490, 3.429011037612587304E-16 ) ) ;
#171 = DIRECTION ( 'NONE',  ( 0.0000000000000000000, 1.000000000000000000, 0.0000000000000000000 ) ) ;
#172 = ADVANCED_FACE ( 'NONE', ( #114 ), #142, .T. ) ;
#173 = DIRECTION ( 'NONE',  ( -3.491481338843133355E-15, 1.224646799147353207E-16, -1.000000000000000000 ) ) ;
#174 = DATE_AND_TIME ( #287, #237 ) ;
#175 = AXIS2_PLACEMENT_3D ( 'NONE', #213, #191, #268 ) ;
#176 = ORIENTED_EDGE ( 'NONE', *, *, #88, .T. ) ;
#177 = EDGE_CURVE ( 'NONE', #68, #157, #169, .T. ) ;
#178 = DIRECTION ( 'NONE',  ( -3.491481338843133355E-15, 1.224646799147353207E-16, -1.000000000000000000 ) ) ;
#179 = AXIS2_PLACEMENT_3D ( 'NONE', #199, #215, #48 ) ;
#180 = CC_DESIGN_APPROVAL ( #187, ( #79 ) ) ;
#181 = VERTEX_POINT ( 'NONE', #92 ) ;
#182 = PERSON_AND_ORGANIZATION ( #295, #278 ) ;
#183 = ORIENTED_EDGE ( 'NONE', *, *, #88, .F. ) ;
#184 = EDGE_CURVE ( 'NONE', #14, #258, #117, .T. ) ;
#185 = CIRCLE ( 'NONE', #324, 2.800000000000001155 ) ;
#186 = CARTESIAN_POINT ( 'NONE',  ( 5.874102188025336140E-15, -2.799999999999993605, 1.682409733277182573 ) ) ;
#187 = APPROVAL ( #18, 'UNSPECIFIED' ) ;
#188 = CARTESIAN_POINT ( 'NONE',  ( 2.304377683636468267E-13, 2.199999999999993516, 66.00000000000000000 ) ) ;
#189 = DATE_AND_TIME ( #31, #212 ) ;
#190 = VECTOR ( 'NONE', #89, 1000.000000000000000 ) ;
#191 = DIRECTION ( 'NONE',  ( 3.491481338843133355E-15, -1.224646799147353207E-16, 1.000000000000000000 ) ) ;
#192 = DIRECTION ( 'NONE',  ( 4.275831445896958607E-31, 1.000000000000000000, 1.224646799147353207E-16 ) ) ;
#193 = CARTESIAN_POINT ( 'NONE',  ( 7.332110811570580046E-14, -2.571758278209441661E-15, 21.00000000000000000 ) ) ;
#194 = CIRCLE ( 'NONE', #102, 2.799999999999996270 ) ;
#195 = DIRECTION ( 'NONE',  ( -3.491481338843133355E-15, 1.224646799147353207E-16, -1.000000000000000000 ) ) ;
#196 = CARTESIAN_POINT ( 'NONE',  ( 1.197232804851146098E-30, 2.799999999999994937, 3.429011037612582866E-16 ) ) ;
#197 = ORIENTED_EDGE ( 'NONE', *, *, #177, .F. ) ;
#198 = ORIENTED_EDGE ( 'NONE', *, *, #184, .F. ) ;
#199 = CARTESIAN_POINT ( 'NONE',  ( 0.0000000000000000000, 0.0000000000000000000, 0.0000000000000000000 ) ) ;
#200 = AXIS2_PLACEMENT_3D ( 'NONE', #126, #247, #252 ) ;
#201 = CARTESIAN_POINT ( 'NONE',  ( 3.994050625562679350E-14, -2.799999999999998490, 21.00000000000000000 ) ) ;
#202 = APPLICATION_CONTEXT ( 'configuration controlled 3d designs of mechanical parts and assemblies' ) ;
#203 = CIRCLE ( 'NONE', #118, 2.200000000000001954 ) ;
#204 = DATE_AND_TIME ( #32, #316 ) ;
#205 = DIRECTION ( 'NONE',  ( -3.491481338843133355E-15, 1.224646799147353207E-16, -1.000000000000000000 ) ) ;
#206 = ADVANCED_FACE ( 'NONE', ( #208 ), #286, .F. ) ;
#207 = AXIS2_PLACEMENT_3D ( 'NONE', #44, #121, #74 ) ;
#208 = FACE_OUTER_BOUND ( 'NONE', #22, .T. ) ;
#209 = ORIENTED_EDGE ( 'NONE', *, *, #308, .F. ) ;
#210 = ORIENTED_EDGE ( 'NONE', *, *, #46, .F. ) ;
#211 = DIRECTION ( 'NONE',  ( -3.491481338843133355E-15, 1.224646799147353207E-16, -1.000000000000000000 ) ) ;
#212 = LOCAL_TIME ( 9, 22, 15.00000000000000000, #38 ) ;
#213 = CARTESIAN_POINT ( 'NONE',  ( 7.332110811570580046E-14, 2.099663695726594082E-32, 21.00000000000000000 ) ) ;
#214 = ORIENTED_EDGE ( 'NONE', *, *, #46, .T. ) ;
#215 = DIRECTION ( 'NONE',  ( -3.491481338843133355E-15, 1.224646799147353207E-16, -1.000000000000000000 ) ) ;
#216 = CARTESIAN_POINT ( 'NONE',  ( 2.304377683636468267E-13, -8.082668874372532400E-15, 66.00000000000000000 ) ) ;
#217 = EDGE_LOOP ( 'NONE', ( #64, #337, #107, #197 ) ) ;
#218 = EDGE_CURVE ( 'NONE', #14, #246, #317, .T. ) ;
#219 = CIRCLE ( 'NONE', #251, 2.799999999999996270 ) ;
#220 = AXIS2_PLACEMENT_3D ( 'NONE', #139, #243, #319 ) ;
#221 = ORIENTED_EDGE ( 'NONE', *, *, #141, .F. ) ;
#222 = CARTESIAN_POINT ( 'NONE',  ( 7.332110811570580046E-14, -2.571758278209441661E-15, 21.00000000000000000 ) ) ;
#223 = ADVANCED_FACE ( 'NONE', ( #167 ), #112, .T. ) ;
#224 = CARTESIAN_POINT ( 'NONE',  ( 7.332110811570580046E-14, 2.099663695726594082E-32, 21.00000000000000000 ) ) ;
#225 = EDGE_LOOP ( 'NONE', ( #314, #82 ) ) ;
#226 = CIRCLE ( 'NONE', #49, 2.799999999999996270 ) ;
#227 =( NAMED_UNIT ( * ) SI_UNIT ( $, .STERADIAN. ) SOLID_ANGLE_UNIT ( ) );
#228 = DIRECTION ( 'NONE',  ( -3.491481338843133355E-15, 1.224646799147353207E-16, -1.000000000000000000 ) ) ;
#229 = VERTEX_POINT ( 'NONE', #123 ) ;
#230 = CARTESIAN_POINT ( 'NONE',  ( 7.332110811570580046E-14, -2.571758278209441661E-15, 21.00000000000000000 ) ) ;
#231 = CARTESIAN_POINT ( 'NONE',  ( 1.511748949417844982E-13, -2.800000000000008704, 65.40000000000000568 ) ) ;
#232 = AXIS2_PLACEMENT_3D ( 'NONE', #165, #271, #192 ) ;
#233 = COORDINATED_UNIVERSAL_TIME_OFFSET ( 1, 0, .AHEAD. ) ;
#234 = PRODUCT_DEFINITION ( 'UNKNOWN', '', #108, #128 ) ;
#235 = ORIENTED_EDGE ( 'NONE', *, *, #94, .F. ) ;
#236 = DIRECTION ( 'NONE',  ( -3.491481338843133355E-15, 1.224646799147353207E-16, -1.000000000000000000 ) ) ;
#237 = LOCAL_TIME ( 9, 22, 15.00000000000000000, #244 ) ;
#238 =( LENGTH_UNIT ( ) NAMED_UNIT ( * ) SI_UNIT ( .MILLI., .METRE. ) );
#239 = CARTESIAN_POINT ( 'NONE',  ( 2.283428795603408836E-13, -8.009190066423689102E-15, 65.40000000000000568 ) ) ;
#240 = DIRECTION ( 'NONE',  ( 0.0000000000000000000, 1.000000000000000000, 0.0000000000000000000 ) ) ;
#241 = DATE_TIME_ROLE ( 'creation_date' ) ;
#242 = DIRECTION ( 'NONE',  ( -3.491481338843133355E-15, 1.224646799147353207E-16, -1.000000000000000000 ) ) ;
#243 = DIRECTION ( 'NONE',  ( -3.491481338843133355E-15, 1.224646799147353207E-16, -1.000000000000000000 ) ) ;
#244 = COORDINATED_UNIVERSAL_TIME_OFFSET ( 1, 0, .AHEAD. ) ;
#245 = EDGE_CURVE ( 'NONE', #246, #258, #42, .T. ) ;
#246 = VERTEX_POINT ( 'NONE', #326 ) ;
#247 = DIRECTION ( 'NONE',  ( 3.491481338843133355E-15, -1.224646799147353207E-16, 1.000000000000000000 ) ) ;
#248 = CARTESIAN_POINT ( 'NONE',  ( 0.0000000000000000000, 0.0000000000000000000, 0.0000000000000000000 ) ) ;
#249 = DIRECTION ( 'NONE',  ( 4.275831445896957731E-31, 1.000000000000000000, 1.224646799147353207E-16 ) ) ;
#250 = DATE_AND_TIME ( #132, #55 ) ;
#251 = AXIS2_PLACEMENT_3D ( 'NONE', #230, #205, #312 ) ;
#252 = DIRECTION ( 'NONE',  ( -5.502656983963543645E-31, -1.000000000000000000, -1.548860246407867034E-16 ) ) ;
#253 = AXIS2_PLACEMENT_3D ( 'NONE', #239, #236, #10 ) ;
#254 = EDGE_CURVE ( 'NONE', #23, #59, #164, .T. ) ;
#255 = EDGE_LOOP ( 'NONE', ( #183, #87, #309, #151 ) ) ;
#256 = LINE ( 'NONE', #272, #71 ) ;
#257 = FACE_OUTER_BOUND ( 'NONE', #97, .T. ) ;
#258 = VERTEX_POINT ( 'NONE', #168 ) ;
#259 = ORIENTED_EDGE ( 'NONE', *, *, #308, .T. ) ;
#260 = SECURITY_CLASSIFICATION_LEVEL ( 'unclassified' ) ;
#261 = APPROVAL_STATUS ( 'not_yet_approved' ) ;
#262 = EDGE_CURVE ( 'NONE', #229, #282, #203, .T. ) ;
#263 = ORIENTED_EDGE ( 'NONE', *, *, #184, .T. ) ;
#264 = CALENDAR_DATE ( 2021, 3, 9 ) ;
#265 = ADVANCED_FACE ( 'NONE', ( #273 ), #47, .F. ) ;
#266 = CONICAL_SURFACE ( 'NONE', #146, 2.799999999999993605, 1.029744258676649871 ) ;
#267 = AXIS2_PLACEMENT_3D ( 'NONE', #75, #80, #20 ) ;
#268 = DIRECTION ( 'NONE',  ( -4.275831445896958607E-31, -1.000000000000000000, -1.224646799147353207E-16 ) ) ;
#269 = ORIENTED_EDGE ( 'NONE', *, *, #94, .T. ) ;
#270 = CC_DESIGN_PERSON_AND_ORGANIZATION_ASSIGNMENT ( #310, #281, ( #79 ) ) ;
#271 = DIRECTION ( 'NONE',  ( -3.491481338843133355E-15, 1.224646799147353207E-16, -1.000000000000000000 ) ) ;
#272 = CARTESIAN_POINT ( 'NONE',  ( 2.307071906594592390E-13, -2.200000000000009948, 66.00000000000000000 ) ) ;
#273 = FACE_OUTER_BOUND ( 'NONE', #225, .T. ) ;
#274 = MANIFOLD_SOLID_BREP ( 'Corps-Déplacer/Copier1[2]', #21 ) ;
#275 = EDGE_CURVE ( 'NONE', #229, #157, #313, .T. ) ;
#276 = DIRECTION ( 'NONE',  ( -4.275831445896958607E-31, -1.000000000000000000, -1.224646799147353207E-16 ) ) ;
#277 = CARTESIAN_POINT ( 'NONE',  ( 0.0000000000000000000, 0.0000000000000000000, 0.0000000000000000000 ) ) ;
#278 = ORGANIZATION ( 'UNSPECIFIED', 'UNSPECIFIED', '' ) ;
#279 = ORIENTED_EDGE ( 'NONE', *, *, #218, .F. ) ;
#280 = CARTESIAN_POINT ( 'NONE',  ( 1.511748949417845739E-13, -2.799999999999998490, 21.00000000000000000 ) ) ;
#281 = PERSON_AND_ORGANIZATION_ROLE ( 'classification_officer' ) ;
#282 = VERTEX_POINT ( 'NONE', #109 ) ;
#283 = LINE ( 'NONE', #196, #53 ) ;
#284 = ORIENTED_EDGE ( 'NONE', *, *, #303, .F. ) ;
#285 = SHAPE_DEFINITION_REPRESENTATION ( #73, #90 ) ;
#286 = PLANE ( 'NONE',  #175 ) ;
#287 = CALENDAR_DATE ( 2021, 3, 9 ) ;
#288 = CIRCLE ( 'NONE', #43, 2.200000000000001954 ) ;
#289 = ORIENTED_EDGE ( 'NONE', *, *, #245, .T. ) ;
#290 = CC_DESIGN_PERSON_AND_ORGANIZATION_ASSIGNMENT ( #26, #311, ( #12 ) ) ;
#291 = APPROVAL_DATE_TIME ( #174, #15 ) ;
#292 = CIRCLE ( 'NONE', #100, 2.799999999999993605 ) ;
#293 = UNCERTAINTY_MEASURE_WITH_UNIT (LENGTH_MEASURE( 1.000000000000000082E-05 ), #238, 'distance_accuracy_value', 'NONE');
#294 = VERTEX_POINT ( 'NONE', #201 ) ;
#295 = PERSON ( 'UNSPECIFIED', 'UNSPECIFIED', 'UNSPECIFIED', ('UNSPECIFIED'), ('UNSPECIFIED'), ('UNSPECIFIED') ) ;
#296 = ORIENTED_EDGE ( 'NONE', *, *, #78, .F. ) ;
#297 = DIRECTION ( 'NONE',  ( -3.491481338843133355E-15, 1.224646799147353207E-16, -1.000000000000000000 ) ) ;
#298 = PERSON_AND_ORGANIZATION ( #295, #278 ) ;
#299 = DATE_TIME_ROLE ( 'classification_date' ) ;
#300 = APPROVAL_PERSON_ORGANIZATION ( #150, #187, #99 ) ;
#301 = CARTESIAN_POINT ( 'NONE',  ( 2.304377683636468267E-13, -8.082668874372532400E-15, 66.00000000000000000 ) ) ;
#302 = EDGE_CURVE ( 'NONE', #282, #229, #288, .T. ) ;
#303 = EDGE_CURVE ( 'NONE', #294, #181, #194, .T. ) ;
#304 = APPLICATION_CONTEXT ( 'configuration controlled 3d designs of mechanical parts and assemblies' ) ;
#305 = VECTOR ( 'NONE', #297, 1000.000000000000000 ) ;
#306 = AXIS2_PLACEMENT_3D ( 'NONE', #129, #95, #36 ) ;
#307 = APPLICATION_PROTOCOL_DEFINITION ( 'international standard', 'config_control_design', 1994, #202 ) ;
#308 = EDGE_CURVE ( 'NONE', #181, #294, #226, .T. ) ;
#309 = ORIENTED_EDGE ( 'NONE', *, *, #141, .T. ) ;
#310 = PERSON_AND_ORGANIZATION ( #295, #278 ) ;
#311 = PERSON_AND_ORGANIZATION_ROLE ( 'design_owner' ) ;
#312 = DIRECTION ( 'NONE',  ( 0.0000000000000000000, 1.000000000000000000, 0.0000000000000000000 ) ) ;
#313 = LINE ( 'NONE', #188, #91 ) ;
#314 = ORIENTED_EDGE ( 'NONE', *, *, #262, .F. ) ;
#315 = EDGE_LOOP ( 'NONE', ( #198, #166, #289 ) ) ;
#316 = LOCAL_TIME ( 9, 22, 15.00000000000000000, #40 ) ;
#317 = LINE ( 'NONE', #33, #84 ) ;
#318 = CC_DESIGN_PERSON_AND_ORGANIZATION_ASSIGNMENT ( #11, #13, ( #234 ) ) ;
#319 = DIRECTION ( 'NONE',  ( 4.275831445896958607E-31, 1.000000000000000000, 1.224646799147353207E-16 ) ) ;
#320 = CYLINDRICAL_SURFACE ( 'NONE', #124, 2.799999999999994937 ) ;
#321 = LOCAL_TIME ( 9, 22, 15.00000000000000000, #233 ) ;
#322 = CARTESIAN_POINT ( 'NONE',  ( 2.283428795603408836E-13, -8.009190066423689102E-15, 65.40000000000000568 ) ) ;
#323 = ORIENTED_EDGE ( 'NONE', *, *, #7, .T. ) ;
#324 = AXIS2_PLACEMENT_3D ( 'NONE', #322, #62, #240 ) ;
#325 = CC_DESIGN_APPROVAL ( #15, ( #108 ) ) ;
#326 = CARTESIAN_POINT ( 'NONE',  ( 6.217003291786597237E-15, 2.799999999999993605, 1.682409733277183461 ) ) ;
#327 = DIRECTION ( 'NONE',  ( 0.0000000000000000000, 1.000000000000000000, 0.0000000000000000000 ) ) ;
#328 = ORIENTED_EDGE ( 'NONE', *, *, #262, .T. ) ;
#329 = ADVANCED_FACE ( 'NONE', ( #144 ), #63, .T. ) ;
#330 = EDGE_LOOP ( 'NONE', ( #269, #176, #54, #221 ) ) ;
#331 = DIRECTION ( 'NONE',  ( 3.491481338843133355E-15, -1.224646799147353207E-16, 1.000000000000000000 ) ) ;
#332 = DIRECTION ( 'NONE',  ( 3.491481338843133355E-15, -1.224646799147353207E-16, 1.000000000000000000 ) ) ;
#333 = AXIS2_PLACEMENT_3D ( 'NONE', #336, #60, #25 ) ;
#334 = CONICAL_SURFACE ( 'NONE', #333, 2.200000000000001954, 0.7853981633974450594 ) ;
#335 = CC_DESIGN_PERSON_AND_ORGANIZATION_ASSIGNMENT ( #298, #77, ( #108 ) ) ;
#336 = CARTESIAN_POINT ( 'NONE',  ( 2.304377683636468267E-13, -8.082668874372532400E-15, 66.00000000000000000 ) ) ;
#337 = ORIENTED_EDGE ( 'NONE', *, *, #302, .T. ) ;
ENDSEC;
END-ISO-10303-21;
