ISO-10303-21;
HEADER;
FILE_DESCRIPTION (( 'STEP AP203' ),
    '1' );
FILE_NAME ('41593.step',
    '2021-09-02T13:22:49',
    ( '' ),
    ( '' ),
    'SwSTEP 2.0',
    'SolidWorks 2019',
    '' );
FILE_SCHEMA (( 'CONFIG_CONTROL_DESIGN' ));
ENDSEC;

DATA;
#1 = PERSON_AND_ORGANIZATION ( #177, #150 ) ;
#2 = CLOSED_SHELL ( 'NONE', ( #145, #274, #55, #44, #153, #207 ) ) ;
#3 = AXIS2_PLACEMENT_3D ( 'NONE', #257, #80, #32 ) ;
#4 = PERSON_AND_ORGANIZATION ( #177, #150 ) ;
#5 = ORIENTED_EDGE ( 'NONE', *, *, #22, .F. ) ;
#6 = CARTESIAN_POINT ( 'NONE',  ( 1.710825856033135470E-13, -6.000769315822030937E-15, 49.00000000000000000 ) ) ;
#7 = CIRCLE ( 'NONE', #12, 0.9999999999999847899 ) ;
#8 = EDGE_CURVE ( 'NONE', #50, #184, #166, .T. ) ;
#9 = AXIS2_PLACEMENT_3D ( 'NONE', #286, #158, #259 ) ;
#10 = ORIENTED_EDGE ( 'NONE', *, *, #93, .T. ) ;
#11 = PERSON_AND_ORGANIZATION ( #177, #150 ) ;
#12 = AXIS2_PLACEMENT_3D ( 'NONE', #139, #192, #242 ) ;
#13 = CIRCLE ( 'NONE', #270, 0.9999999999999817923 ) ;
#14 = CARTESIAN_POINT ( 'NONE',  ( 2.220358318495178758E-15, 0.9999999999999817923, 0.6008606190275561643 ) ) ;
#15 = CARTESIAN_POINT ( 'NONE',  ( 1.224646799147332253E-16, -0.9999999999999863443, -1.224646799147340635E-16 ) ) ;
#16 = ORIENTED_EDGE ( 'NONE', *, *, #311, .T. ) ;
#17 = CC_DESIGN_PERSON_AND_ORGANIZATION_ASSIGNMENT ( #78, #24, ( #195 ) ) ;
#18 = PERSON_AND_ORGANIZATION ( #177, #150 ) ;
#19 = AXIS2_PLACEMENT_3D ( 'NONE', #276, #193, #189 ) ;
#20 = EDGE_LOOP ( 'NONE', ( #16, #10, #5, #329 ) ) ;
#21 = LINE ( 'NONE', #119, #82 ) ;
#22 = EDGE_CURVE ( 'NONE', #184, #292, #7, .T. ) ;
#23 = CONICAL_SURFACE ( 'NONE', #19, 0.9999999999999817923, 1.029744258676649649 ) ;
#24 = PERSON_AND_ORGANIZATION_ROLE ( 'creator' ) ;
#25 = CARTESIAN_POINT ( 'NONE',  ( 1.272123854138047388E-13, -0.9999999999999878986, 23.99999999999999289 ) ) ;
#26 = DIRECTION ( 'NONE',  ( 0.0000000000000000000, 1.000000000000000000, 0.0000000000000000000 ) ) ;
#27 = EDGE_CURVE ( 'NONE', #226, #50, #67, .T. ) ;
#28 = COORDINATED_UNIVERSAL_TIME_OFFSET ( 1, 0, .AHEAD. ) ;
#29 = CARTESIAN_POINT ( 'NONE',  ( 1.703842893355448825E-13, 0.9999999999999817923, 48.79999999999999716 ) ) ;
#30 = APPROVAL_ROLE ( '' ) ;
#31 = EDGE_CURVE ( 'NONE', #281, #328, #308, .T. ) ;
#32 = DIRECTION ( 'NONE',  ( 0.0000000000000000000, 1.000000000000000000, 0.0000000000000000000 ) ) ;
#33 = CC_DESIGN_PERSON_AND_ORGANIZATION_ASSIGNMENT ( #4, #122, ( #131 ) ) ;
#34 =( NAMED_UNIT ( * ) SI_UNIT ( $, .STERADIAN. ) SOLID_ANGLE_UNIT ( ) );
#35 = DATE_TIME_ROLE ( 'creation_date' ) ;
#36 = AXIS2_PLACEMENT_3D ( 'NONE', #318, #104, #317 ) ;
#37 = CARTESIAN_POINT ( 'NONE',  ( 1.711805573472453150E-13, -0.7999999999999931610, 49.00000000000000000 ) ) ;
#38 =( NAMED_UNIT ( * ) PLANE_ANGLE_UNIT ( ) SI_UNIT ( $, .RADIAN. ) );
#39 = CALENDAR_DATE ( 2021, 2, 9 ) ;
#40 = ORIENTED_EDGE ( 'NONE', *, *, #27, .F. ) ;
#41 = ORIENTED_EDGE ( 'NONE', *, *, #307, .T. ) ;
#42 = ORIENTED_EDGE ( 'NONE', *, *, #179, .F. ) ;
#43 = AXIS2_PLACEMENT_3D ( 'NONE', #201, #56, #106 ) ;
#44 = ADVANCED_FACE ( 'NONE', ( #155 ), #290, .T. ) ;
#45 = DIRECTION ( 'NONE',  ( -3.491481338843133355E-15, 1.224646799147353207E-16, -1.000000000000000000 ) ) ;
#46 = CARTESIAN_POINT ( 'NONE',  ( 1.224646799147328555E-16, -0.9999999999999833467, -1.224646799147336937E-16 ) ) ;
#47 = DIRECTION ( 'NONE',  ( 0.0000000000000000000, 1.000000000000000000, 0.0000000000000000000 ) ) ;
#48 = SECURITY_CLASSIFICATION_LEVEL ( 'unclassified' ) ;
#49 = AXIS2_PLACEMENT_3D ( 'NONE', #241, #84, #269 ) ;
#50 = VERTEX_POINT ( 'NONE', #29 ) ;
#51 = ADVANCED_FACE ( 'NONE', ( #258 ), #66, .T. ) ;
#52 = APPLICATION_CONTEXT ( 'configuration controlled 3d designs of mechanical parts and assemblies' ) ;
#53 = DIRECTION ( 'NONE',  ( -3.491481338843133355E-15, 1.224646799147353207E-16, -1.000000000000000000 ) ) ;
#54 = CIRCLE ( 'NONE', #114, 0.9999999999999878986 ) ;
#55 = ADVANCED_FACE ( 'NONE', ( #182 ), #288, .F. ) ;
#56 = DIRECTION ( 'NONE',  ( -3.491481338843133355E-15, 1.224646799147353207E-16, -1.000000000000000000 ) ) ;
#57 = CARTESIAN_POINT ( 'NONE',  ( 1.710825856033135470E-13, 0.7999999999999812816, 49.00000000000000000 ) ) ;
#58 = VECTOR ( 'NONE', #90, 1000.000000000000000 ) ;
#59 = LINE ( 'NONE', #37, #314 ) ;
#60 = ORIENTED_EDGE ( 'NONE', *, *, #311, .F. ) ;
#61 = APPROVAL_ROLE ( '' ) ;
#62 = ORIENTED_EDGE ( 'NONE', *, *, #200, .F. ) ;
#63 = DIRECTION ( 'NONE',  ( -3.491481338843133355E-15, 1.224646799147353207E-16, -1.000000000000000000 ) ) ;
#64 = VERTEX_POINT ( 'NONE', #14 ) ;
#65 = DIRECTION ( 'NONE',  ( 1.798245827342160317E-15, -0.8571673007021098911, 0.5150380749100582634 ) ) ;
#66 = CONICAL_SURFACE ( 'NONE', #36, 0.9999999999999817923, 1.029744258676649649 ) ;
#67 = LINE ( 'NONE', #168, #251 ) ;
#68 = PLANE ( 'NONE',  #95 ) ;
#69 = DIRECTION ( 'NONE',  ( -3.491481338843133355E-15, 1.224646799147353207E-16, -1.000000000000000000 ) ) ;
#70 = CIRCLE ( 'NONE', #124, 0.7999999999999872768 ) ;
#71 = CARTESIAN_POINT ( 'NONE',  ( 2.220358318495178758E-15, 0.9999999999999817923, 0.6008606190275561643 ) ) ;
#72 = ADVANCED_FACE ( 'NONE', ( #180 ), #174, .T. ) ;
#73 = APPROVAL_PERSON_ORGANIZATION ( #291, #256, #61 ) ;
#74 = DIRECTION ( 'NONE',  ( -3.491481338843133355E-15, 1.224646799147353207E-16, -1.000000000000000000 ) ) ;
#75 = CC_DESIGN_APPROVAL ( #81, ( #87 ) ) ;
#76 = EDGE_CURVE ( 'NONE', #234, #206, #59, .T. ) ;
#77 = APPROVAL ( #160, 'UNSPECIFIED' ) ;
#78 = PERSON_AND_ORGANIZATION ( #177, #150 ) ;
#79 = APPROVAL_STATUS ( 'not_yet_approved' ) ;
#80 = DIRECTION ( 'NONE',  ( -3.491481338843133355E-15, 1.224646799147353207E-16, -1.000000000000000000 ) ) ;
#81 = APPROVAL ( #79, 'UNSPECIFIED' ) ;
#82 = VECTOR ( 'NONE', #65, 1000.000000000000000 ) ;
#83 = CALENDAR_DATE ( 2021, 2, 9 ) ;
#84 = DIRECTION ( 'NONE',  ( -3.491481338843133355E-15, 1.224646799147353207E-16, -1.000000000000000000 ) ) ;
#85 = ORIENTED_EDGE ( 'NONE', *, *, #147, .T. ) ;
#86 = DIRECTION ( 'NONE',  ( -4.275831445896958607E-31, -1.000000000000000000, -1.224646799147353207E-16 ) ) ;
#87 = SECURITY_CLASSIFICATION ( '', '', #48 ) ;
#88 = DIRECTION ( 'NONE',  ( -3.491481338843133355E-15, 1.224646799147353207E-16, -1.000000000000000000 ) ) ;
#89 = ORIENTED_EDGE ( 'NONE', *, *, #200, .T. ) ;
#90 = DIRECTION ( 'NONE',  ( -3.491481338843133355E-15, 1.224646799147353207E-16, -1.000000000000000000 ) ) ;
#91 = DIRECTION ( 'NONE',  ( 0.0000000000000000000, 1.000000000000000000, 0.0000000000000000000 ) ) ;
#92 = EDGE_LOOP ( 'NONE', ( #279, #164, #60, #40 ) ) ;
#93 = EDGE_CURVE ( 'NONE', #206, #292, #323, .T. ) ;
#94 = CALENDAR_DATE ( 2021, 2, 9 ) ;
#95 = AXIS2_PLACEMENT_3D ( 'NONE', #128, #178, #231 ) ;
#96 = CARTESIAN_POINT ( 'NONE',  ( 1.703842893355448825E-13, -5.976276379839083434E-15, 48.79999999999999716 ) ) ;
#97 = EDGE_LOOP ( 'NONE', ( #188, #297, #309, #162 ) ) ;
#98 = ADVANCED_FACE ( 'NONE', ( #109 ), #23, .T. ) ;
#99 = PRODUCT_DEFINITION_SHAPE ( 'NONE', 'NONE',  #195 ) ;
#100 = CIRCLE ( 'NONE', #221, 0.7999999999999872768 ) ;
#101 = LOCAL_TIME ( 15, 22, 49.00000000000000000, #129 ) ;
#102 = AXIS2_PLACEMENT_3D ( 'NONE', #283, #287, #209 ) ;
#103 = EDGE_CURVE ( 'NONE', #328, #64, #13, .T. ) ;
#104 = DIRECTION ( 'NONE',  ( 3.491481338843133355E-15, -1.224646799147353207E-16, 1.000000000000000000 ) ) ;
#105 = CALENDAR_DATE ( 2021, 2, 9 ) ;
#106 = DIRECTION ( 'NONE',  ( 4.275831445896958607E-31, 1.000000000000000000, 1.224646799147353207E-16 ) ) ;
#107 = ORIENTED_EDGE ( 'NONE', *, *, #22, .T. ) ;
#108 = CIRCLE ( 'NONE', #3, 0.9999999999999847899 ) ;
#109 = FACE_OUTER_BOUND ( 'NONE', #213, .T. ) ;
#110 = EDGE_LOOP ( 'NONE', ( #123, #264, #116 ) ) ;
#111 = APPLICATION_PROTOCOL_DEFINITION ( 'international standard', 'config_control_design', 1994, #52 ) ;
#112 = ORIENTED_EDGE ( 'NONE', *, *, #31, .F. ) ;
#113 = ADVANCED_FACE ( 'NONE', ( #237 ), #337, .T. ) ;
#114 = AXIS2_PLACEMENT_3D ( 'NONE', #96, #305, #185 ) ;
#115 = DIRECTION ( 'NONE',  ( 1.000000000000000000, 0.0000000000000000000, 0.0000000000000000000 ) ) ;
#116 = ORIENTED_EDGE ( 'NONE', *, *, #244, .T. ) ;
#117 = CARTESIAN_POINT ( 'NONE',  ( 2.097893638580445188E-15, -7.358420338257936773E-17, 0.6008606190275560532 ) ) ;
#118 = DIRECTION ( 'NONE',  ( 4.275831445896958607E-31, 1.000000000000000000, 1.224646799147353207E-16 ) ) ;
#119 = CARTESIAN_POINT ( 'NONE',  ( 2.097893638580444793E-15, -0.9999999999999817923, 0.6008606190275559422 ) ) ;
#120 = CIRCLE ( 'NONE', #282, 0.9999999999999817923 ) ;
#121 = DIRECTION ( 'NONE',  ( 3.491481338843133355E-15, -1.224646799147353207E-16, 1.000000000000000000 ) ) ;
#122 = PERSON_AND_ORGANIZATION_ROLE ( 'creator' ) ;
#123 = ORIENTED_EDGE ( 'NONE', *, *, #299, .F. ) ;
#124 = AXIS2_PLACEMENT_3D ( 'NONE', #6, #223, #47 ) ;
#125 = PERSON_AND_ORGANIZATION ( #177, #150 ) ;
#126 = EDGE_CURVE ( 'NONE', #159, #281, #108, .T. ) ;
#127 = AXIS2_PLACEMENT_3D ( 'NONE', #266, #331, #118 ) ;
#128 = CARTESIAN_POINT ( 'NONE',  ( 1.710825856033135470E-13, 5.999039130647245690E-33, 49.00000000000000000 ) ) ;
#129 = COORDINATED_UNIVERSAL_TIME_OFFSET ( 1, 0, .AHEAD. ) ;
#130 = UNCERTAINTY_MEASURE_WITH_UNIT (LENGTH_MEASURE( 1.000000000000000082E-05 ), #196, 'distance_accuracy_value', 'NONE');
#131 = PRODUCT_DEFINITION_FORMATION_WITH_SPECIFIED_SOURCE ( 'ANY', '', #222, .NOT_KNOWN. ) ;
#132 = DATE_AND_TIME ( #39, #335 ) ;
#133 = ORIENTED_EDGE ( 'NONE', *, *, #93, .F. ) ;
#134 = CARTESIAN_POINT ( 'NONE',  ( 2.097893638580445188E-15, -7.358420338257936773E-17, 0.6008606190275560532 ) ) ;
#135 = DIRECTION ( 'NONE',  ( 3.851859888774541771E-31, 1.000000000000000000, 1.084202172485524156E-16 ) ) ;
#136 = LINE ( 'NONE', #298, #58 ) ;
#137 = VECTOR ( 'NONE', #143, 999.9999999999998863 ) ;
#138 = CC_DESIGN_PERSON_AND_ORGANIZATION_ASSIGNMENT ( #125, #312, ( #87 ) ) ;
#139 = CARTESIAN_POINT ( 'NONE',  ( 8.379555213223517528E-14, -2.939152317953647106E-15, 23.99999999999999289 ) ) ;
#140 = DIRECTION ( 'NONE',  ( 0.0000000000000000000, 1.000000000000000000, 0.0000000000000000000 ) ) ;
#141 = EDGE_LOOP ( 'NONE', ( #232, #322, #253, #62 ) ) ;
#142 = DIRECTION ( 'NONE',  ( -3.491481338843133355E-15, 1.224646799147353207E-16, -1.000000000000000000 ) ) ;
#143 = DIRECTION ( 'NONE',  ( 1.903218546456022717E-15, 0.8571673007021097801, 0.5150380749100585964 ) ) ;
#144 = AXIS2_PLACEMENT_3D ( 'NONE', #324, #121, #86 ) ;
#145 = ADVANCED_FACE ( 'NONE', ( #211 ), #190, .T. ) ;
#146 = CC_DESIGN_DATE_AND_TIME_ASSIGNMENT ( #219, #187, ( #87 ) ) ;
#147 = EDGE_CURVE ( 'NONE', #292, #184, #246, .T. ) ;
#148 = ORIENTED_EDGE ( 'NONE', *, *, #103, .F. ) ;
#149 =( GEOMETRIC_REPRESENTATION_CONTEXT ( 3 ) GLOBAL_UNCERTAINTY_ASSIGNED_CONTEXT ( ( #130 ) ) GLOBAL_UNIT_ASSIGNED_CONTEXT ( ( #196, #38, #34 ) ) REPRESENTATION_CONTEXT ( 'NONE', 'WORKASPACE' ) );
#150 = ORGANIZATION ( 'UNSPECIFIED', 'UNSPECIFIED', '' ) ;
#151 = CARTESIAN_POINT ( 'NONE',  ( 8.379555213223517528E-14, 0.9999999999999817923, 23.99999999999999289 ) ) ;
#152 = APPLICATION_CONTEXT ( 'configuration controlled 3d designs of mechanical parts and assemblies' ) ;
#153 = ADVANCED_FACE ( 'NONE', ( #267 ), #167, .T. ) ;
#154 = AXIS2_PLACEMENT_3D ( 'NONE', #203, #202, #229 ) ;
#155 = FACE_OUTER_BOUND ( 'NONE', #183, .T. ) ;
#156 = VECTOR ( 'NONE', #142, 1000.000000000000000 ) ;
#157 = DATE_AND_TIME ( #94, #204 ) ;
#158 = DIRECTION ( 'NONE',  ( -3.491481338843133355E-15, 1.224646799147353207E-16, -1.000000000000000000 ) ) ;
#159 = VERTEX_POINT ( 'NONE', #236 ) ;
#160 = APPROVAL_STATUS ( 'not_yet_approved' ) ;
#161 = MANIFOLD_SOLID_BREP ( 'Corps-Déplacer/Copier1[2]', #238 ) ;
#162 = ORIENTED_EDGE ( 'NONE', *, *, #249, .F. ) ;
#163 = DIRECTION ( 'NONE',  ( 0.0000000000000000000, 0.0000000000000000000, 1.000000000000000000 ) ) ;
#164 = ORIENTED_EDGE ( 'NONE', *, *, #76, .T. ) ;
#165 = DIRECTION ( 'NONE',  ( 0.0000000000000000000, 1.000000000000000000, 0.0000000000000000000 ) ) ;
#166 = LINE ( 'NONE', #306, #285 ) ;
#167 = CONICAL_SURFACE ( 'NONE', #49, 0.7999999999999872768, 0.7853981633974356225 ) ;
#168 = CARTESIAN_POINT ( 'NONE',  ( 1.710825856033135470E-13, 0.7999999999999812816, 49.00000000000000000 ) ) ;
#169 = ORIENTED_EDGE ( 'NONE', *, *, #126, .F. ) ;
#170 = PERSON_AND_ORGANIZATION_ROLE ( 'design_supplier' ) ;
#171 = EDGE_CURVE ( 'NONE', #226, #234, #70, .T. ) ;
#172 = VECTOR ( 'NONE', #53, 1000.000000000000000 ) ;
#173 = DIRECTION ( 'NONE',  ( 0.0000000000000000000, 1.000000000000000000, 0.0000000000000000000 ) ) ;
#174 = CYLINDRICAL_SURFACE ( 'NONE', #9, 0.9999999999999833467 ) ;
#175 = AXIS2_PLACEMENT_3D ( 'NONE', #334, #45, #140 ) ;
#176 = APPROVAL_DATE_TIME ( #320, #81 ) ;
#177 = PERSON ( 'UNSPECIFIED', 'UNSPECIFIED', 'UNSPECIFIED', ('UNSPECIFIED'), ('UNSPECIFIED'), ('UNSPECIFIED') ) ;
#178 = DIRECTION ( 'NONE',  ( -3.491481338843133355E-15, 1.224646799147353207E-16, -1.000000000000000000 ) ) ;
#179 = EDGE_CURVE ( 'NONE', #234, #226, #100, .T. ) ;
#180 = FACE_OUTER_BOUND ( 'NONE', #97, .T. ) ;
#181 = ORIENTED_EDGE ( 'NONE', *, *, #171, .F. ) ;
#182 = FACE_OUTER_BOUND ( 'NONE', #262, .T. ) ;
#183 = EDGE_LOOP ( 'NONE', ( #133, #89, #218, #210 ) ) ;
#184 = VERTEX_POINT ( 'NONE', #151 ) ;
#185 = DIRECTION ( 'NONE',  ( 0.0000000000000000000, 1.000000000000000000, 0.0000000000000000000 ) ) ;
#186 = CYLINDRICAL_SURFACE ( 'NONE', #127, 0.9999999999999863443 ) ;
#187 = DATE_TIME_ROLE ( 'classification_date' ) ;
#188 = ORIENTED_EDGE ( 'NONE', *, *, #126, .T. ) ;
#189 = DIRECTION ( 'NONE',  ( -3.851859888774541771E-31, -1.000000000000000000, -1.084202172485524156E-16 ) ) ;
#190 = CONICAL_SURFACE ( 'NONE', #230, 0.7999999999999872768, 0.7853981633974356225 ) ;
#191 = APPROVAL_DATE_TIME ( #157, #77 ) ;
#192 = DIRECTION ( 'NONE',  ( -3.491481338843133355E-15, 1.224646799147353207E-16, -1.000000000000000000 ) ) ;
#193 = DIRECTION ( 'NONE',  ( 3.491481338843133355E-15, -1.224646799147353207E-16, 1.000000000000000000 ) ) ;
#194 = CALENDAR_DATE ( 2021, 2, 9 ) ;
#195 = PRODUCT_DEFINITION ( 'UNKNOWN', '', #131, #228 ) ;
#196 =( LENGTH_UNIT ( ) NAMED_UNIT ( * ) SI_UNIT ( .MILLI., .METRE. ) );
#197 = FACE_OUTER_BOUND ( 'NONE', #278, .T. ) ;
#198 = LOCAL_TIME ( 15, 22, 49.00000000000000000, #28 ) ;
#199 = CIRCLE ( 'NONE', #175, 0.9999999999999847899 ) ;
#200 = EDGE_CURVE ( 'NONE', #206, #50, #254, .T. ) ;
#201 = CARTESIAN_POINT ( 'NONE',  ( 0.0000000000000000000, 0.0000000000000000000, 0.0000000000000000000 ) ) ;
#202 = DIRECTION ( 'NONE',  ( 3.491481338843133355E-15, -1.224646799147353207E-16, 1.000000000000000000 ) ) ;
#203 = CARTESIAN_POINT ( 'NONE',  ( 8.379555213223517528E-14, 7.498798913309132035E-33, 23.99999999999999289 ) ) ;
#204 = LOCAL_TIME ( 15, 22, 49.00000000000000000, #333 ) ;
#205 = CC_DESIGN_DATE_AND_TIME_ASSIGNMENT ( #319, #35, ( #195 ) ) ;
#206 = VERTEX_POINT ( 'NONE', #248 ) ;
#207 = ADVANCED_FACE ( 'NONE', ( #197 ), #68, .F. ) ;
#208 = ORIENTED_EDGE ( 'NONE', *, *, #103, .T. ) ;
#209 = DIRECTION ( 'NONE',  ( 4.275831445896957731E-31, 1.000000000000000000, 1.224646799147353207E-16 ) ) ;
#210 = ORIENTED_EDGE ( 'NONE', *, *, #147, .F. ) ;
#211 = FACE_OUTER_BOUND ( 'NONE', #92, .T. ) ;
#212 = DIRECTION ( 'NONE',  ( -3.491481338843133355E-15, 1.224646799147353207E-16, -1.000000000000000000 ) ) ;
#213 = EDGE_LOOP ( 'NONE', ( #330, #265, #208 ) ) ;
#214 = COORDINATED_UNIVERSAL_TIME_OFFSET ( 1, 0, .AHEAD. ) ;
#215 = CARTESIAN_POINT ( 'NONE',  ( 4.306918756532242015E-14, -0.9999999999999878986, 23.99999999999999289 ) ) ;
#216 = APPROVAL_ROLE ( '' ) ;
#217 = CARTESIAN_POINT ( 'NONE',  ( 0.0000000000000000000, 0.0000000000000000000, 0.0000000000000000000 ) ) ;
#218 = ORIENTED_EDGE ( 'NONE', *, *, #8, .T. ) ;
#219 = DATE_AND_TIME ( #194, #280 ) ;
#220 = PRODUCT_RELATED_PRODUCT_CATEGORY ( 'detail', '', ( #222 ) ) ;
#221 = AXIS2_PLACEMENT_3D ( 'NONE', #313, #74, #26 ) ;
#222 = PRODUCT ( '41593', '41593', '', ( #247 ) ) ;
#223 = DIRECTION ( 'NONE',  ( -3.491481338843133355E-15, 1.224646799147353207E-16, -1.000000000000000000 ) ) ;
#224 = APPROVAL_PERSON_ORGANIZATION ( #18, #77, #216 ) ;
#225 = EDGE_LOOP ( 'NONE', ( #112, #41, #302, #148 ) ) ;
#226 = VERTEX_POINT ( 'NONE', #57 ) ;
#227 = CC_DESIGN_APPROVAL ( #256, ( #131 ) ) ;
#228 = DESIGN_CONTEXT ( 'detailed design', #152, 'design' ) ;
#229 = DIRECTION ( 'NONE',  ( -4.275831445896958607E-31, -1.000000000000000000, -1.224646799147353207E-16 ) ) ;
#230 = AXIS2_PLACEMENT_3D ( 'NONE', #273, #243, #91 ) ;
#231 = DIRECTION ( 'NONE',  ( 4.275831445896958607E-31, 1.000000000000000000, 1.224646799147353207E-16 ) ) ;
#232 = ORIENTED_EDGE ( 'NONE', *, *, #76, .F. ) ;
#233 = DIRECTION ( 'NONE',  ( -2.382254525458748630E-15, -0.7071067811865384689, -0.7071067811865565655 ) ) ;
#234 = VERTEX_POINT ( 'NONE', #263 ) ;
#235 = CARTESIAN_POINT ( 'NONE',  ( 2.097893638580444793E-15, -0.9999999999999817923, 0.6008606190275559422 ) ) ;
#236 = CARTESIAN_POINT ( 'NONE',  ( 8.379555213223517528E-14, 0.9999999999999817923, 23.99999999999999289 ) ) ;
#237 = FACE_OUTER_BOUND ( 'NONE', #321, .T. ) ;
#238 = CLOSED_SHELL ( 'NONE', ( #72, #51, #98, #293, #113 ) ) ;
#239 = APPROVAL_PERSON_ORGANIZATION ( #11, #81, #30 ) ;
#240 = FACE_OUTER_BOUND ( 'NONE', #20, .T. ) ;
#241 = CARTESIAN_POINT ( 'NONE',  ( 1.710825856033135470E-13, -6.000769315822030937E-15, 49.00000000000000000 ) ) ;
#242 = DIRECTION ( 'NONE',  ( 0.0000000000000000000, 1.000000000000000000, 0.0000000000000000000 ) ) ;
#243 = DIRECTION ( 'NONE',  ( -3.491481338843133355E-15, 1.224646799147353207E-16, -1.000000000000000000 ) ) ;
#244 = EDGE_CURVE ( 'NONE', #64, #328, #120, .T. ) ;
#245 = FACE_OUTER_BOUND ( 'NONE', #225, .T. ) ;
#246 = CIRCLE ( 'NONE', #260, 0.9999999999999847899 ) ;
#247 = MECHANICAL_CONTEXT ( 'NONE', #52, 'mechanical' ) ;
#248 = CARTESIAN_POINT ( 'NONE',  ( 1.272123854138046378E-13, -0.9999999999999940048, 48.79999999999999716 ) ) ;
#249 = EDGE_CURVE ( 'NONE', #159, #64, #136, .T. ) ;
#250 = CC_DESIGN_SECURITY_CLASSIFICATION ( #87, ( #131 ) ) ;
#251 = VECTOR ( 'NONE', #272, 999.9999999999998863 ) ;
#252 = CARTESIAN_POINT ( 'NONE',  ( 1.703842893355448825E-13, -5.976276379839083434E-15, 48.79999999999999716 ) ) ;
#253 = ORIENTED_EDGE ( 'NONE', *, *, #27, .T. ) ;
#254 = CIRCLE ( 'NONE', #327, 0.9999999999999878986 ) ;
#255 = CYLINDRICAL_SURFACE ( 'NONE', #102, 0.9999999999999833467 ) ;
#256 = APPROVAL ( #301, 'UNSPECIFIED' ) ;
#257 = CARTESIAN_POINT ( 'NONE',  ( 8.379555213223517528E-14, -2.939152317953647106E-15, 23.99999999999999289 ) ) ;
#258 = FACE_OUTER_BOUND ( 'NONE', #110, .T. ) ;
#259 = DIRECTION ( 'NONE',  ( 4.275831445896957731E-31, 1.000000000000000000, 1.224646799147353207E-16 ) ) ;
#260 = AXIS2_PLACEMENT_3D ( 'NONE', #303, #63, #165 ) ;
#261 = COORDINATED_UNIVERSAL_TIME_OFFSET ( 1, 0, .AHEAD. ) ;
#262 = EDGE_LOOP ( 'NONE', ( #107, #85 ) ) ;
#263 = CARTESIAN_POINT ( 'NONE',  ( 1.708436556813524537E-13, -0.7999999999999931610, 49.00000000000000000 ) ) ;
#264 = ORIENTED_EDGE ( 'NONE', *, *, #284, .T. ) ;
#265 = ORIENTED_EDGE ( 'NONE', *, *, #299, .T. ) ;
#266 = CARTESIAN_POINT ( 'NONE',  ( 0.0000000000000000000, 0.0000000000000000000, 0.0000000000000000000 ) ) ;
#267 = FACE_OUTER_BOUND ( 'NONE', #141, .T. ) ;
#268 = DIRECTION ( 'NONE',  ( -3.491481338843133355E-15, 1.224646799147353207E-16, -1.000000000000000000 ) ) ;
#269 = DIRECTION ( 'NONE',  ( 0.0000000000000000000, 1.000000000000000000, 0.0000000000000000000 ) ) ;
#270 = AXIS2_PLACEMENT_3D ( 'NONE', #117, #88, #135 ) ;
#271 = ORIENTED_EDGE ( 'NONE', *, *, #307, .F. ) ;
#272 = DIRECTION ( 'NONE',  ( -2.468850131082296504E-15, 0.7071067811865388020, -0.7071067811865563435 ) ) ;
#273 = CARTESIAN_POINT ( 'NONE',  ( 1.710825856033135470E-13, -6.000769315822030937E-15, 49.00000000000000000 ) ) ;
#274 = ADVANCED_FACE ( 'NONE', ( #240 ), #186, .T. ) ;
#275 = MANIFOLD_SOLID_BREP ( 'Corps-Déplacer/Copier1[1]', #2 ) ;
#276 = CARTESIAN_POINT ( 'NONE',  ( 2.097893638580445188E-15, -7.358420338257936773E-17, 0.6008606190275560532 ) ) ;
#277 = CARTESIAN_POINT ( 'NONE',  ( 0.0000000000000000000, 0.0000000000000000000, 0.0000000000000000000 ) ) ;
#278 = EDGE_LOOP ( 'NONE', ( #181, #42 ) ) ;
#279 = ORIENTED_EDGE ( 'NONE', *, *, #171, .T. ) ;
#280 = LOCAL_TIME ( 15, 22, 49.00000000000000000, #214 ) ;
#281 = VERTEX_POINT ( 'NONE', #215 ) ;
#282 = AXIS2_PLACEMENT_3D ( 'NONE', #134, #212, #336 ) ;
#283 = CARTESIAN_POINT ( 'NONE',  ( 0.0000000000000000000, 0.0000000000000000000, 0.0000000000000000000 ) ) ;
#284 = EDGE_CURVE ( 'NONE', #300, #64, #332, .T. ) ;
#285 = VECTOR ( 'NONE', #268, 1000.000000000000000 ) ;
#286 = CARTESIAN_POINT ( 'NONE',  ( 0.0000000000000000000, 0.0000000000000000000, 0.0000000000000000000 ) ) ;
#287 = DIRECTION ( 'NONE',  ( -3.491481338843133355E-15, 1.224646799147353207E-16, -1.000000000000000000 ) ) ;
#288 = PLANE ( 'NONE',  #154 ) ;
#289 = SHAPE_DEFINITION_REPRESENTATION ( #99, #315 ) ;
#290 = CYLINDRICAL_SURFACE ( 'NONE', #43, 0.9999999999999863443 ) ;
#291 = PERSON_AND_ORGANIZATION ( #177, #150 ) ;
#292 = VERTEX_POINT ( 'NONE', #25 ) ;
#293 = ADVANCED_FACE ( 'NONE', ( #245 ), #255, .T. ) ;
#294 = PERSON_AND_ORGANIZATION ( #177, #150 ) ;
#295 = AXIS2_PLACEMENT_3D ( 'NONE', #277, #163, #115 ) ;
#296 = APPROVAL_DATE_TIME ( #132, #256 ) ;
#297 = ORIENTED_EDGE ( 'NONE', *, *, #31, .T. ) ;
#298 = CARTESIAN_POINT ( 'NONE',  ( 4.275831445896886790E-31, 0.9999999999999833467, 1.224646799147332746E-16 ) ) ;
#299 = EDGE_CURVE ( 'NONE', #300, #328, #21, .T. ) ;
#300 = VERTEX_POINT ( 'NONE', #217 ) ;
#301 = APPROVAL_STATUS ( 'not_yet_approved' ) ;
#302 = ORIENTED_EDGE ( 'NONE', *, *, #249, .T. ) ;
#303 = CARTESIAN_POINT ( 'NONE',  ( 8.379555213223517528E-14, -2.939152317953647106E-15, 23.99999999999999289 ) ) ;
#304 = PERSON_AND_ORGANIZATION_ROLE ( 'design_owner' ) ;
#305 = DIRECTION ( 'NONE',  ( -3.491481338843133355E-15, 1.224646799147353207E-16, -1.000000000000000000 ) ) ;
#306 = CARTESIAN_POINT ( 'NONE',  ( 4.275831445896899927E-31, 0.9999999999999863443, 1.224646799147336444E-16 ) ) ;
#307 = EDGE_CURVE ( 'NONE', #281, #159, #199, .T. ) ;
#308 = LINE ( 'NONE', #46, #156 ) ;
#309 = ORIENTED_EDGE ( 'NONE', *, *, #244, .F. ) ;
#310 = CC_DESIGN_APPROVAL ( #77, ( #195 ) ) ;
#311 = EDGE_CURVE ( 'NONE', #50, #206, #54, .T. ) ;
#312 = PERSON_AND_ORGANIZATION_ROLE ( 'classification_officer' ) ;
#313 = CARTESIAN_POINT ( 'NONE',  ( 1.710825856033135470E-13, -6.000769315822030937E-15, 49.00000000000000000 ) ) ;
#314 = VECTOR ( 'NONE', #233, 1000.000000000000000 ) ;
#315 = ADVANCED_BREP_SHAPE_REPRESENTATION ( '41593', ( #275, #161, #295 ), #149 ) ;
#316 = CC_DESIGN_PERSON_AND_ORGANIZATION_ASSIGNMENT ( #1, #170, ( #131 ) ) ;
#317 = DIRECTION ( 'NONE',  ( -3.851859888774541771E-31, -1.000000000000000000, -1.084202172485524156E-16 ) ) ;
#318 = CARTESIAN_POINT ( 'NONE',  ( 2.097893638580445188E-15, -7.358420338257936773E-17, 0.6008606190275560532 ) ) ;
#319 = DATE_AND_TIME ( #83, #198 ) ;
#320 = DATE_AND_TIME ( #105, #101 ) ;
#321 = EDGE_LOOP ( 'NONE', ( #169, #271 ) ) ;
#322 = ORIENTED_EDGE ( 'NONE', *, *, #179, .T. ) ;
#323 = LINE ( 'NONE', #15, #172 ) ;
#324 = CARTESIAN_POINT ( 'NONE',  ( 8.379555213223517528E-14, 7.498798913309132035E-33, 23.99999999999999289 ) ) ;
#325 = CC_DESIGN_PERSON_AND_ORGANIZATION_ASSIGNMENT ( #294, #304, ( #222 ) ) ;
#326 = APPLICATION_PROTOCOL_DEFINITION ( 'international standard', 'config_control_design', 1994, #152 ) ;
#327 = AXIS2_PLACEMENT_3D ( 'NONE', #252, #69, #173 ) ;
#328 = VERTEX_POINT ( 'NONE', #235 ) ;
#329 = ORIENTED_EDGE ( 'NONE', *, *, #8, .F. ) ;
#330 = ORIENTED_EDGE ( 'NONE', *, *, #284, .F. ) ;
#331 = DIRECTION ( 'NONE',  ( -3.491481338843133355E-15, 1.224646799147353207E-16, -1.000000000000000000 ) ) ;
#332 = LINE ( 'NONE', #71, #137 ) ;
#333 = COORDINATED_UNIVERSAL_TIME_OFFSET ( 1, 0, .AHEAD. ) ;
#334 = CARTESIAN_POINT ( 'NONE',  ( 8.379555213223517528E-14, -2.939152317953647106E-15, 23.99999999999999289 ) ) ;
#335 = LOCAL_TIME ( 15, 22, 49.00000000000000000, #261 ) ;
#336 = DIRECTION ( 'NONE',  ( 3.851859888774541771E-31, 1.000000000000000000, 1.084202172485524156E-16 ) ) ;
#337 = PLANE ( 'NONE',  #144 ) ;
ENDSEC;
END-ISO-10303-21;
