ISO-10303-21;
HEADER;
FILE_DESCRIPTION (( 'STEP AP214' ),
    '1' );
FILE_NAME ('41576.step',
    '2024-04-04T09:32:57',
    ( '' ),
    ( '' ),
    'SwSTEP 2.0',
    'SolidWorks 2022',
    '' );
FILE_SCHEMA (( 'AUTOMOTIVE_DESIGN' ));
ENDSEC;

DATA;
#1 = ORIENTED_EDGE ( 'NONE', *, *, #173, .T. ) ;
#2 = DIRECTION ( 'NONE',  ( -2.468850131082253511E-15, 0.7071067811865507924, -0.7071067811865441310 ) ) ;
#3 = CIRCLE ( 'NONE', #77, 1.999999999999995781 ) ;
#4 = FACE_OUTER_BOUND ( 'NONE', #214, .T. ) ;
#5 = DIRECTION ( 'NONE',  ( 1.000000000000000000, 0.000000000000000000, -3.854941057726239478E-15 ) ) ;
#6 = CARTESIAN_POINT ( 'NONE',  ( 0.000000000000000000, 0.000000000000000000, 0.000000000000000000 ) ) ;
#7 = ADVANCED_BREP_SHAPE_REPRESENTATION ( '41576', ( #94, #97, #80 ), #159 ) ;
#8 = ORIENTED_EDGE ( 'NONE', *, *, #313, .F. ) ;
#9 = CARTESIAN_POINT ( 'NONE',  ( 1.452456236958743223E-13, -5.094530684452989105E-15, 41.59999999999999432 ) ) ;
#10 = EDGE_CURVE ( 'NONE', #287, #250, #112, .T. ) ;
#11 = CARTESIAN_POINT ( 'NONE',  ( 2.793185071074506684E-14, 0.000000000000000000, 8.000000000000000000 ) ) ;
#12 = AXIS2_PLACEMENT_3D ( 'NONE', #134, #324, #198 ) ;
#13 = CARTESIAN_POINT ( 'NONE',  ( 2.987457057411375709E-14, -1.047858879337801793E-15, 8.556417083418351055 ) ) ;
#14 = DIRECTION ( 'NONE',  ( 0.000000000000000000, 1.000000000000000000, 0.000000000000000000 ) ) ;
#15 = SURFACE_STYLE_USAGE ( .BOTH. , #282 ) ;
#16 = AXIS2_PLACEMENT_3D ( 'NONE', #113, #63, #87 ) ;
#17 = ADVANCED_FACE ( 'NONE', ( #221 ), #306, .T. ) ;
#18 =( NAMED_UNIT ( * ) PLANE_ANGLE_UNIT ( ) SI_UNIT ( $, .RADIAN. ) );
#19 =( LENGTH_UNIT ( ) NAMED_UNIT ( * ) SI_UNIT ( .MILLI., .METRE. ) );
#20 =( NAMED_UNIT ( * ) SI_UNIT ( $, .STERADIAN. ) SOLID_ANGLE_UNIT ( ) );
#21 = UNCERTAINTY_MEASURE_WITH_UNIT (LENGTH_MEASURE( 1.000000000000000082E-05 ), #19, 'distance_accuracy_value', 'NONE');
#22 = DIRECTION ( 'NONE',  ( 0.000000000000000000, 1.000000000000000000, 0.000000000000000000 ) ) ;
#23 = EDGE_CURVE ( 'NONE', #55, #166, #48, .T. ) ;
#24 = PRESENTATION_LAYER_ASSIGNMENT (  '', '', ( #133 ) ) ;
#25 = CARTESIAN_POINT ( 'NONE',  ( 1.466422162314116009E-13, -5.143516556418883322E-15, 42.00000000000000000 ) ) ;
#26 = VERTEX_POINT ( 'NONE', #303 ) ;
#27 = ORIENTED_EDGE ( 'NONE', *, *, #74, .F. ) ;
#28 = CONICAL_SURFACE ( 'NONE', #82, 1.999999999999998224, 0.7853981633974528309 ) ;
#29 = ADVANCED_FACE ( 'NONE', ( #169 ), #237, .T. ) ;
#30 = DIRECTION ( 'NONE',  ( 0.000000000000000000, 1.000000000000000000, 0.000000000000000000 ) ) ;
#31 = DIRECTION ( 'NONE',  ( 4.275831445896958607E-31, 1.000000000000000000, 1.224646799147353454E-16 ) ) ;
#32 = EDGE_LOOP ( 'NONE', ( #246, #88, #300, #271 ) ) ;
#33 = AXIS2_PLACEMENT_3D ( 'NONE', #123, #210, #93 ) ;
#34 = DIRECTION ( 'NONE',  ( 0.000000000000000000, 1.000000000000000000, 0.000000000000000000 ) ) ;
#35 = ORIENTED_EDGE ( 'NONE', *, *, #205, .T. ) ;
#36 = CARTESIAN_POINT ( 'NONE',  ( 2.793185071074506684E-14, -9.797174393178827630E-16, 8.000000000000000000 ) ) ;
#37 = PRODUCT_RELATED_PRODUCT_CATEGORY ( 'part', '', ( #38 ) ) ;
#38 = PRODUCT ( '41576', '41576', '', ( #232 ) ) ;
#39 = CARTESIAN_POINT ( 'NONE',  ( 2.793185071074506684E-14, -9.797174393178827630E-16, 8.000000000000000000 ) ) ;
#40 = CARTESIAN_POINT ( 'NONE',  ( 2.793185071074506684E-14, 0.000000000000000000, 8.000000000000000000 ) ) ;
#41 = VECTOR ( 'NONE', #267, 1000.000000000000000 ) ;
#42 = DIRECTION ( 'NONE',  ( -3.491481338843133355E-15, 1.224646799147353454E-16, -1.000000000000000000 ) ) ;
#43 = CIRCLE ( 'NONE', #124, 1.999999999999995781 ) ;
#44 = DIRECTION ( 'NONE',  ( -3.491481338843133355E-15, 1.224646799147353454E-16, -1.000000000000000000 ) ) ;
#45 = SURFACE_STYLE_FILL_AREA ( #98 ) ;
#46 = DIRECTION ( 'NONE',  ( 0.000000000000000000, 1.000000000000000000, 0.000000000000000000 ) ) ;
#47 =( LENGTH_UNIT ( ) NAMED_UNIT ( * ) SI_UNIT ( .MILLI., .METRE. ) );
#48 = CIRCLE ( 'NONE', #142, 1.799999999999999156 ) ;
#49 = EDGE_CURVE ( 'NONE', #226, #287, #86, .T. ) ;
#50 =( LENGTH_UNIT ( ) NAMED_UNIT ( * ) SI_UNIT ( .MILLI., .METRE. ) );
#51 = CARTESIAN_POINT ( 'NONE',  ( 1.800000000000027134, 0.000000000000000000, 7.999999999999992895 ) ) ;
#52 = ORIENTED_EDGE ( 'NONE', *, *, #257, .F. ) ;
#53 = EDGE_CURVE ( 'NONE', #262, #287, #302, .T. ) ;
#54 = APPLICATION_CONTEXT ( 'automotive_design' ) ;
#55 = VERTEX_POINT ( 'NONE', #329 ) ;
#56 = VECTOR ( 'NONE', #276, 1000.000000000000114 ) ;
#57 = CARTESIAN_POINT ( 'NONE',  ( 8.551662891793910207E-31, 1.999999999999998224, 2.449293598294704935E-16 ) ) ;
#58 = CARTESIAN_POINT ( 'NONE',  ( 8.756009713499403971E-14, 1.999999999999993117, 41.59999999999999432 ) ) ;
#59 = DIRECTION ( 'NONE',  ( -3.491481338843133355E-15, 1.224646799147369477E-16, -1.000000000000000000 ) ) ;
#60 = PLANE ( 'NONE',  #139 ) ;
#61 = ORIENTED_EDGE ( 'NONE', *, *, #91, .T. ) ;
#62 = STYLED_ITEM ( 'NONE', ( #280 ), #94 ) ;
#63 = DIRECTION ( 'NONE',  ( -3.491481338843133355E-15, 1.224646799147369477E-16, -1.000000000000000000 ) ) ;
#64 = EDGE_CURVE ( 'NONE', #106, #250, #89, .T. ) ;
#65 = ORIENTED_EDGE ( 'NONE', *, *, #151, .T. ) ;
#66 = ORIENTED_EDGE ( 'NONE', *, *, #298, .T. ) ;
#67 = AXIS2_PLACEMENT_3D ( 'NONE', #90, #131, #14 ) ;
#68 = CARTESIAN_POINT ( 'NONE',  ( 2.793185071074506684E-14, -1.800000000000001155, 8.000000000000000000 ) ) ;
#69 = CARTESIAN_POINT ( 'NONE',  ( 1.454905530557037926E-13, -2.000000000000003553, 41.59999999999999432 ) ) ;
#70 = CARTESIAN_POINT ( 'NONE',  ( 0.000000000000000000, 0.000000000000000000, 0.000000000000000000 ) ) ;
#71 = FILL_AREA_STYLE_COLOUR ( '', #223 ) ;
#72 = AXIS2_PLACEMENT_3D ( 'NONE', #148, #277, #312 ) ;
#73 = CARTESIAN_POINT ( 'NONE',  ( 2.793185071074506684E-14, -9.797174393178827630E-16, 8.000000000000000000 ) ) ;
#74 = EDGE_CURVE ( 'NONE', #248, #55, #266, .T. ) ;
#75 =( NAMED_UNIT ( * ) SI_UNIT ( $, .STERADIAN. ) SOLID_ANGLE_UNIT ( ) );
#76 = FACE_OUTER_BOUND ( 'NONE', #295, .T. ) ;
#77 = AXIS2_PLACEMENT_3D ( 'NONE', #13, #117, #30 ) ;
#78 = PRODUCT_DEFINITION_SHAPE ( 'NONE', 'NONE',  #116 ) ;
#79 = ORIENTED_EDGE ( 'NONE', *, *, #240, .T. ) ;
#80 = AXIS2_PLACEMENT_3D ( 'NONE', #278, #284, #316 ) ;
#81 = EDGE_CURVE ( 'NONE', #129, #250, #3, .T. ) ;
#82 = AXIS2_PLACEMENT_3D ( 'NONE', #204, #99, #46 ) ;
#83 = CARTESIAN_POINT ( 'NONE',  ( 2.987457057411375709E-14, 1.999999999999994893, 8.556417083418351055 ) ) ;
#84 = EDGE_LOOP ( 'NONE', ( #163, #128 ) ) ;
#85 =( LENGTH_UNIT ( ) NAMED_UNIT ( * ) SI_UNIT ( .MILLI., .METRE. ) );
#86 = LINE ( 'NONE', #323, #190 ) ;
#87 = DIRECTION ( 'NONE',  ( 2.930988785010413267E-14, -1.000000000000000000, 0.000000000000000000 ) ) ;
#88 = ORIENTED_EDGE ( 'NONE', *, *, #173, .F. ) ;
#89 = LINE ( 'NONE', #174, #332 ) ;
#90 = CARTESIAN_POINT ( 'NONE',  ( 1.452456236958743223E-13, -5.094530684452989105E-15, 41.59999999999999432 ) ) ;
#91 = EDGE_CURVE ( 'NONE', #250, #129, #43, .T. ) ;
#92 = ORIENTED_EDGE ( 'NONE', *, *, #53, .T. ) ;
#93 = DIRECTION ( 'NONE',  ( 4.275831445896959482E-31, 1.000000000000000000, 1.224646799147353454E-16 ) ) ;
#94 = MANIFOLD_SOLID_BREP ( 'Corps-Déplacer/Copier1[1]', #293 ) ;
#95 = SURFACE_SIDE_STYLE ('',( #176 ) ) ;
#96 = PLANE ( 'NONE',  #33 ) ;
#97 = MANIFOLD_SOLID_BREP ( 'Corps-Déplacer/Copier1[2]', #153 ) ;
#98 = FILL_AREA_STYLE ('',( #71 ) ) ;
#99 = DIRECTION ( 'NONE',  ( -3.491481338843133355E-15, 1.224646799147369477E-16, -1.000000000000000000 ) ) ;
#100 = FACE_OUTER_BOUND ( 'NONE', #265, .T. ) ;
#101 = EDGE_LOOP ( 'NONE', ( #35, #341 ) ) ;
#102 = PRESENTATION_LAYER_ASSIGNMENT (  '', '', ( #62 ) ) ;
#103 = ADVANCED_FACE ( 'NONE', ( #177 ), #28, .T. ) ;
#104 = VECTOR ( 'NONE', #44, 1000.000000000000000 ) ;
#105 = AXIS2_PLACEMENT_3D ( 'NONE', #36, #296, #304 ) ;
#106 = VERTEX_POINT ( 'NONE', #333 ) ;
#107 = ORIENTED_EDGE ( 'NONE', *, *, #64, .F. ) ;
#108 = DIRECTION ( 'NONE',  ( 1.000000000000000000, 0.000000000000000000, -3.491481338843133355E-15 ) ) ;
#109 = ADVANCED_FACE ( 'NONE', ( #122 ), #96, .T. ) ;
#110 = ORIENTED_EDGE ( 'NONE', *, *, #157, .T. ) ;
#111 = PLANE ( 'NONE',  #335 ) ;
#112 = LINE ( 'NONE', #57, #233 ) ;
#113 = CARTESIAN_POINT ( 'NONE',  ( 1.452456236958743223E-13, -5.094530684452989105E-15, 41.59999999999999432 ) ) ;
#114 = DIRECTION ( 'NONE',  ( -2.842170943040400743E-14, -1.000000000000000000, 0.000000000000000000 ) ) ;
#115 = FACE_OUTER_BOUND ( 'NONE', #242, .T. ) ;
#116 = PRODUCT_DEFINITION ( 'UNKNOWN', '', #203, #290 ) ;
#117 = DIRECTION ( 'NONE',  ( -3.491481338843133355E-15, 1.224646799147353454E-16, -1.000000000000000000 ) ) ;
#118 = DIRECTION ( 'NONE',  ( -3.491481338843133355E-15, 1.224646799147353454E-16, -1.000000000000000000 ) ) ;
#119 = SURFACE_SIDE_STYLE ('',( #208 ) ) ;
#120 = COLOUR_RGB ( '',0.8980392156862745390, 0.9176470588235293713, 0.9294117647058823817 ) ;
#121 = EDGE_CURVE ( 'NONE', #26, #106, #241, .T. ) ;
#122 = FACE_OUTER_BOUND ( 'NONE', #84, .T. ) ;
#123 = CARTESIAN_POINT ( 'NONE',  ( 2.793185071074506684E-14, 1.799999999999999156, 8.000000000000000000 ) ) ;
#124 = AXIS2_PLACEMENT_3D ( 'NONE', #130, #207, #22 ) ;
#125 = DIRECTION ( 'NONE',  ( 3.491481338843133355E-15, -1.224646799147353454E-16, 1.000000000000000000 ) ) ;
#126 = ORIENTED_EDGE ( 'NONE', *, *, #81, .T. ) ;
#127 = STYLED_ITEM ( 'NONE', ( #150 ), #7 ) ;
#128 = ORIENTED_EDGE ( 'NONE', *, *, #211, .T. ) ;
#129 = VERTEX_POINT ( 'NONE', #308 ) ;
#130 = CARTESIAN_POINT ( 'NONE',  ( 2.987457057411375709E-14, -1.047858879337801793E-15, 8.556417083418351055 ) ) ;
#131 = DIRECTION ( 'NONE',  ( -3.491481338843133355E-15, 1.224646799147369477E-16, -1.000000000000000000 ) ) ;
#132 = EDGE_CURVE ( 'NONE', #248, #189, #187, .T. ) ;
#133 = STYLED_ITEM ( 'NONE', ( #152 ), #97 ) ;
#134 = CARTESIAN_POINT ( 'NONE',  ( 2.793185071074506684E-14, 0.000000000000000000, 8.000000000000000000 ) ) ;
#135 = CARTESIAN_POINT ( 'NONE',  ( 2.793185071074506684E-14, 1.799999999999999156, 8.000000000000000000 ) ) ;
#136 = ORIENTED_EDGE ( 'NONE', *, *, #144, .T. ) ;
#137 = DIRECTION ( 'NONE',  ( 1.000000000000000000, 0.000000000000000000, -3.854941057726238689E-15 ) ) ;
#138 = CIRCLE ( 'NONE', #285, 1.599999999999983435 ) ;
#139 = AXIS2_PLACEMENT_3D ( 'NONE', #135, #307, #299 ) ;
#140 = DIRECTION ( 'NONE',  ( 0.000000000000000000, -1.000000000000000000, 0.000000000000000000 ) ) ;
#141 = DIRECTION ( 'NONE',  ( 3.491481338843133355E-15, -1.224646799147353454E-16, 1.000000000000000000 ) ) ;
#142 = AXIS2_PLACEMENT_3D ( 'NONE', #331, #297, #5 ) ;
#143 = CARTESIAN_POINT ( 'NONE',  ( -1.799999999999971623, 2.204364238465235083E-16, 8.000000000000007105 ) ) ;
#144 = EDGE_CURVE ( 'NONE', #189, #248, #230, .T. ) ;
#145 = DIRECTION ( 'NONE',  ( 0.000000000000000000, -1.000000000000000000, 0.000000000000000000 ) ) ;
#146 =( NAMED_UNIT ( * ) PLANE_ANGLE_UNIT ( ) SI_UNIT ( $, .RADIAN. ) );
#147 = AXIS2_PLACEMENT_3D ( 'NONE', #6, #245, #31 ) ;
#148 = CARTESIAN_POINT ( 'NONE',  ( 0.000000000000000000, 0.000000000000000000, 0.000000000000000000 ) ) ;
#149 = AXIS2_PLACEMENT_3D ( 'NONE', #40, #247, #202 ) ;
#150 = PRESENTATION_STYLE_ASSIGNMENT (( #15 ) ) ;
#151 = EDGE_CURVE ( 'NONE', #185, #262, #156, .T. ) ;
#152 = PRESENTATION_STYLE_ASSIGNMENT (( #231 ) ) ;
#153 = CLOSED_SHELL ( 'NONE', ( #17, #322, #225, #291 ) ) ;
#154 =( GEOMETRIC_REPRESENTATION_CONTEXT ( 3 ) GLOBAL_UNCERTAINTY_ASSIGNED_CONTEXT ( ( #305 ) ) GLOBAL_UNIT_ASSIGNED_CONTEXT ( ( #50, #18, #155 ) ) REPRESENTATION_CONTEXT ( 'NONE', 'WORKASPACE' ) );
#155 =( NAMED_UNIT ( * ) SI_UNIT ( $, .STERADIAN. ) SOLID_ANGLE_UNIT ( ) );
#156 = LINE ( 'NONE', #69, #56 ) ;
#157 = EDGE_CURVE ( 'NONE', #262, #129, #283, .T. ) ;
#158 = APPLICATION_PROTOCOL_DEFINITION ( 'draft international standard', 'automotive_design', 1998, #294 ) ;
#159 =( GEOMETRIC_REPRESENTATION_CONTEXT ( 3 ) GLOBAL_UNCERTAINTY_ASSIGNED_CONTEXT ( ( #256 ) ) GLOBAL_UNIT_ASSIGNED_CONTEXT ( ( #85, #199, #227 ) ) REPRESENTATION_CONTEXT ( 'NONE', 'WORKASPACE' ) );
#160 = CARTESIAN_POINT ( 'NONE',  ( 1.466422162314116009E-13, -5.143516556418884900E-15, 42.00000000000000000 ) ) ;
#161 = ORIENTED_EDGE ( 'NONE', *, *, #144, .F. ) ;
#162 = AXIS2_PLACEMENT_3D ( 'NONE', #39, #219, #140 ) ;
#163 = ORIENTED_EDGE ( 'NONE', *, *, #121, .T. ) ;
#164 = EDGE_LOOP ( 'NONE', ( #107, #201, #327, #126 ) ) ;
#165 = CARTESIAN_POINT ( 'NONE',  ( 1.800000000000027578, 0.000000000000000000, 7.999999999999992895 ) ) ;
#166 = VERTEX_POINT ( 'NONE', #51 ) ;
#167 = CARTESIAN_POINT ( 'NONE',  ( 6.413747168845441632E-32, 1.800000000000000044, 1.836970198721030674E-17 ) ) ;
#168 =( GEOMETRIC_REPRESENTATION_CONTEXT ( 3 ) GLOBAL_UNCERTAINTY_ASSIGNED_CONTEXT ( ( #180 ) ) GLOBAL_UNIT_ASSIGNED_CONTEXT ( ( #47, #146, #20 ) ) REPRESENTATION_CONTEXT ( 'NONE', 'WORKASPACE' ) );
#169 = FACE_OUTER_BOUND ( 'NONE', #164, .T. ) ;
#170 = FACE_OUTER_BOUND ( 'NONE', #186, .T. ) ;
#171 = ORIENTED_EDGE ( 'NONE', *, *, #91, .F. ) ;
#172 = DIRECTION ( 'NONE',  ( 3.285674118869261816E-15, -0.3382550599108820055, 0.9410544694355824635 ) ) ;
#173 = EDGE_CURVE ( 'NONE', #226, #185, #138, .T. ) ;
#174 = CARTESIAN_POINT ( 'NONE',  ( 2.815228713459159200E-14, 1.799999999999999156, 8.000000000000000000 ) ) ;
#175 = CARTESIAN_POINT ( 'NONE',  ( 8.780502649482344690E-14, -2.000000000000003553, 41.59999999999999432 ) ) ;
#176 = SURFACE_STYLE_FILL_AREA ( #234 ) ;
#177 = FACE_OUTER_BOUND ( 'NONE', #32, .T. ) ;
#178 = ADVANCED_FACE ( 'NONE', ( #76 ), #286, .T. ) ;
#179 = DIRECTION ( 'NONE',  ( 0.000000000000000000, 1.000000000000000000, 0.000000000000000000 ) ) ;
#180 = UNCERTAINTY_MEASURE_WITH_UNIT (LENGTH_MEASURE( 1.000000000000000082E-05 ), #47, 'distance_accuracy_value', 'NONE');
#181 = DIRECTION ( 'NONE',  ( 3.491481338843133355E-15, -0.000000000000000000, 1.000000000000000000 ) ) ;
#182 = AXIS2_PLACEMENT_3D ( 'NONE', #73, #315, #179 ) ;
#183 = DIRECTION ( 'NONE',  ( 1.000000000000000000, 0.000000000000000000, -3.491481338843133355E-15 ) ) ;
#184 = DIRECTION ( 'NONE',  ( 0.000000000000000000, -1.000000000000000000, 0.000000000000000000 ) ) ;
#185 = VERTEX_POINT ( 'NONE', #238 ) ;
#186 = EDGE_LOOP ( 'NONE', ( #196, #65, #8, #319 ) ) ;
#187 = CIRCLE ( 'NONE', #72, 1.800000000000000044 ) ;
#188 = AXIS2_PLACEMENT_3D ( 'NONE', #193, #118, #328 ) ;
#189 = VERTEX_POINT ( 'NONE', #317 ) ;
#190 = VECTOR ( 'NONE', #2, 1000.000000000000114 ) ;
#191 = ADVANCED_FACE ( 'NONE', ( #100 ), #222, .T. ) ;
#192 = EDGE_LOOP ( 'NONE', ( #136, #340, #273, #342 ) ) ;
#193 = CARTESIAN_POINT ( 'NONE',  ( 0.000000000000000000, 0.000000000000000000, 0.000000000000000000 ) ) ;
#194 = ORIENTED_EDGE ( 'NONE', *, *, #10, .T. ) ;
#195 = CARTESIAN_POINT ( 'NONE',  ( 1.466422162314116009E-13, -5.143516556418884900E-15, 42.00000000000000000 ) ) ;
#196 = ORIENTED_EDGE ( 'NONE', *, *, #240, .F. ) ;
#197 = CYLINDRICAL_SURFACE ( 'NONE', #215, 1.799999999999999600 ) ;
#198 = DIRECTION ( 'NONE',  ( 1.000000000000000000, 0.000000000000000000, -3.854941057726238689E-15 ) ) ;
#199 =( NAMED_UNIT ( * ) PLANE_ANGLE_UNIT ( ) SI_UNIT ( $, .RADIAN. ) );
#200 = ADVANCED_FACE ( 'NONE', ( #170 ), #338, .T. ) ;
#201 = ORIENTED_EDGE ( 'NONE', *, *, #121, .F. ) ;
#202 = DIRECTION ( 'NONE',  ( 1.000000000000000000, 0.000000000000000000, -3.854941057726239478E-15 ) ) ;
#203 = PRODUCT_DEFINITION_FORMATION_WITH_SPECIFIED_SOURCE ( 'ANY', '', #38, .NOT_KNOWN. ) ;
#204 = CARTESIAN_POINT ( 'NONE',  ( 1.452456236958743223E-13, -5.094530684452989105E-15, 41.59999999999999432 ) ) ;
#205 = EDGE_CURVE ( 'NONE', #166, #55, #213, .T. ) ;
#206 = MECHANICAL_DESIGN_GEOMETRIC_PRESENTATION_REPRESENTATION (  '', ( #133 ), #154 ) ;
#207 = DIRECTION ( 'NONE',  ( -3.491481338843133355E-15, 1.224646799147353454E-16, -1.000000000000000000 ) ) ;
#208 = SURFACE_STYLE_FILL_AREA ( #255 ) ;
#209 =( NAMED_UNIT ( * ) PLANE_ANGLE_UNIT ( ) SI_UNIT ( $, .RADIAN. ) );
#210 = DIRECTION ( 'NONE',  ( -3.491481338843133355E-15, 1.224646799147353454E-16, -1.000000000000000000 ) ) ;
#211 = EDGE_CURVE ( 'NONE', #106, #26, #289, .T. ) ;
#212 = DIRECTION ( 'NONE',  ( -4.275831445896959482E-31, -1.000000000000000000, -1.224646799147353454E-16 ) ) ;
#213 = CIRCLE ( 'NONE', #149, 1.799999999999999156 ) ;
#214 = EDGE_LOOP ( 'NONE', ( #320, #337, #61, #52 ) ) ;
#215 = AXIS2_PLACEMENT_3D ( 'NONE', #11, #301, #137 ) ;
#216 = CONICAL_SURFACE ( 'NONE', #105, 1.800000000000000266, 0.3450620389298190149 ) ;
#217 = ORIENTED_EDGE ( 'NONE', *, *, #81, .F. ) ;
#218 = AXIS2_PLACEMENT_3D ( 'NONE', #9, #59, #114 ) ;
#219 = DIRECTION ( 'NONE',  ( 3.491481338843133355E-15, -1.224646799147353454E-16, 1.000000000000000000 ) ) ;
#220 = CARTESIAN_POINT ( 'NONE',  ( 1.459439199636429616E-13, 1.599999999999978106, 42.00000000000000000 ) ) ;
#221 = FACE_OUTER_BOUND ( 'NONE', #192, .T. ) ;
#222 = CYLINDRICAL_SURFACE ( 'NONE', #147, 1.999999999999998224 ) ;
#223 = COLOUR_RGB ( '',0.8980392156862745390, 0.9176470588235293713, 0.9294117647058823817 ) ;
#224 = DIRECTION ( 'NONE',  ( -3.491481338843133355E-15, 1.224646799147353454E-16, -1.000000000000000000 ) ) ;
#225 = ADVANCED_FACE ( 'NONE', ( #330 ), #60, .F. ) ;
#226 = VERTEX_POINT ( 'NONE', #220 ) ;
#227 =( NAMED_UNIT ( * ) SI_UNIT ( $, .STERADIAN. ) SOLID_ANGLE_UNIT ( ) );
#228 = EDGE_LOOP ( 'NONE', ( #269, #110, #171, #261 ) ) ;
#229 = FACE_OUTER_BOUND ( 'NONE', #228, .T. ) ;
#230 = CIRCLE ( 'NONE', #243, 1.800000000000000044 ) ;
#231 = SURFACE_STYLE_USAGE ( .BOTH. , #119 ) ;
#232 = PRODUCT_CONTEXT ( 'NONE', #54, 'mechanical' ) ;
#233 = VECTOR ( 'NONE', #224, 1000.000000000000000 ) ;
#234 = FILL_AREA_STYLE ('',( #310 ) ) ;
#235 =( GEOMETRIC_REPRESENTATION_CONTEXT ( 3 ) GLOBAL_UNCERTAINTY_ASSIGNED_CONTEXT ( ( #21 ) ) GLOBAL_UNIT_ASSIGNED_CONTEXT ( ( #19, #209, #75 ) ) REPRESENTATION_CONTEXT ( 'NONE', 'WORKASPACE' ) );
#236 = ADVANCED_FACE ( 'NONE', ( #4 ), #216, .T. ) ;
#237 = CONICAL_SURFACE ( 'NONE', #162, 1.800000000000000266, 0.3450620389298190149 ) ;
#238 = CARTESIAN_POINT ( 'NONE',  ( 1.461643563874894899E-13, -1.599999999999988542, 42.00000000000000000 ) ) ;
#239 = ORIENTED_EDGE ( 'NONE', *, *, #132, .T. ) ;
#240 = EDGE_CURVE ( 'NONE', #185, #226, #268, .T. ) ;
#241 = CIRCLE ( 'NONE', #182, 1.800000000000000266 ) ;
#242 = EDGE_LOOP ( 'NONE', ( #161, #321 ) ) ;
#243 = AXIS2_PLACEMENT_3D ( 'NONE', #70, #181, #183 ) ;
#244 = ORIENTED_EDGE ( 'NONE', *, *, #157, .F. ) ;
#245 = DIRECTION ( 'NONE',  ( -3.491481338843133355E-15, 1.224646799147353454E-16, -1.000000000000000000 ) ) ;
#246 = ORIENTED_EDGE ( 'NONE', *, *, #151, .F. ) ;
#247 = DIRECTION ( 'NONE',  ( 3.491481338843133355E-15, -0.000000000000000000, 1.000000000000000000 ) ) ;
#248 = VERTEX_POINT ( 'NONE', #270 ) ;
#249 = CARTESIAN_POINT ( 'NONE',  ( 2.793185071074506684E-14, -9.797174393178827630E-16, 8.000000000000000000 ) ) ;
#250 = VERTEX_POINT ( 'NONE', #83 ) ;
#251 = FACE_OUTER_BOUND ( 'NONE', #288, .T. ) ;
#252 = DIRECTION ( 'NONE',  ( 3.491481338843133355E-15, -0.000000000000000000, 1.000000000000000000 ) ) ;
#253 = CYLINDRICAL_SURFACE ( 'NONE', #188, 1.999999999999998224 ) ;
#254 = FILL_AREA_STYLE_COLOUR ( '', #309 ) ;
#255 = FILL_AREA_STYLE ('',( #254 ) ) ;
#256 = UNCERTAINTY_MEASURE_WITH_UNIT (LENGTH_MEASURE( 1.000000000000000082E-05 ), #85, 'distance_accuracy_value', 'NONE');
#257 = EDGE_CURVE ( 'NONE', #26, #129, #275, .T. ) ;
#258 = CARTESIAN_POINT ( 'NONE',  ( 2.449293598294696061E-16, -1.999999999999998224, -2.449293598294712824E-16 ) ) ;
#259 = DIRECTION ( 'NONE',  ( 3.491481338843133355E-15, -1.224646799147353454E-16, 1.000000000000000000 ) ) ;
#260 = MECHANICAL_DESIGN_GEOMETRIC_PRESENTATION_REPRESENTATION (  '', ( #62 ), #168 ) ;
#261 = ORIENTED_EDGE ( 'NONE', *, *, #10, .F. ) ;
#262 = VERTEX_POINT ( 'NONE', #175 ) ;
#263 = VECTOR ( 'NONE', #252, 1000.000000000000000 ) ;
#264 = ADVANCED_FACE ( 'NONE', ( #229 ), #253, .T. ) ;
#265 = EDGE_LOOP ( 'NONE', ( #244, #92, #194, #217 ) ) ;
#266 = LINE ( 'NONE', #143, #263 ) ;
#267 = DIRECTION ( 'NONE',  ( 3.491481338843133355E-15, -0.000000000000000000, 1.000000000000000000 ) ) ;
#268 = CIRCLE ( 'NONE', #326, 1.599999999999983435 ) ;
#269 = ORIENTED_EDGE ( 'NONE', *, *, #313, .T. ) ;
#270 = CARTESIAN_POINT ( 'NONE',  ( -1.800000000000000044, 2.204364238465252832E-16, 6.284666409917640040E-15 ) ) ;
#271 = ORIENTED_EDGE ( 'NONE', *, *, #53, .F. ) ;
#272 = DIRECTION ( 'NONE',  ( 3.491481338843133355E-15, -0.000000000000000000, 1.000000000000000000 ) ) ;
#273 = ORIENTED_EDGE ( 'NONE', *, *, #205, .F. ) ;
#274 = DIRECTION ( 'NONE',  ( 3.327098416510788004E-15, 0.3382550599108817835, 0.9410544694355825746 ) ) ;
#275 = LINE ( 'NONE', #68, #318 ) ;
#276 = DIRECTION ( 'NONE',  ( -2.382254525458704453E-15, -0.7071067811865506814, -0.7071067811865443531 ) ) ;
#277 = DIRECTION ( 'NONE',  ( 3.491481338843133355E-15, -0.000000000000000000, 1.000000000000000000 ) ) ;
#278 = CARTESIAN_POINT ( 'NONE',  ( 0.000000000000000000, 0.000000000000000000, 0.000000000000000000 ) ) ;
#279 = CIRCLE ( 'NONE', #16, 1.999999999999998224 ) ;
#280 = PRESENTATION_STYLE_ASSIGNMENT (( #336 ) ) ;
#281 = SHAPE_DEFINITION_REPRESENTATION ( #78, #7 ) ;
#282 = SURFACE_SIDE_STYLE ('',( #45 ) ) ;
#283 = LINE ( 'NONE', #258, #104 ) ;
#284 = DIRECTION ( 'NONE',  ( 0.000000000000000000, 0.000000000000000000, 1.000000000000000000 ) ) ;
#285 = AXIS2_PLACEMENT_3D ( 'NONE', #160, #259, #184 ) ;
#286 = PLANE ( 'NONE',  #334 ) ;
#287 = VERTEX_POINT ( 'NONE', #58 ) ;
#288 = EDGE_LOOP ( 'NONE', ( #27, #239, #66, #292 ) ) ;
#289 = CIRCLE ( 'NONE', #339, 1.800000000000000266 ) ;
#290 = PRODUCT_DEFINITION_CONTEXT ( 'detailed design', #294, 'design' ) ;
#291 = ADVANCED_FACE ( 'NONE', ( #115 ), #111, .F. ) ;
#292 = ORIENTED_EDGE ( 'NONE', *, *, #23, .F. ) ;
#293 = CLOSED_SHELL ( 'NONE', ( #200, #236, #264, #109, #178, #191, #29, #103 ) ) ;
#294 = APPLICATION_CONTEXT ( 'automotive_design' ) ;
#295 = EDGE_LOOP ( 'NONE', ( #1, #79 ) ) ;
#296 = DIRECTION ( 'NONE',  ( 3.491481338843133355E-15, -1.224646799147353454E-16, 1.000000000000000000 ) ) ;
#297 = DIRECTION ( 'NONE',  ( 3.491481338843133355E-15, -0.000000000000000000, 1.000000000000000000 ) ) ;
#298 = EDGE_CURVE ( 'NONE', #189, #166, #325, .T. ) ;
#299 = DIRECTION ( 'NONE',  ( -1.000000000000000000, 0.000000000000000000, 3.491481338843133355E-15 ) ) ;
#300 = ORIENTED_EDGE ( 'NONE', *, *, #49, .T. ) ;
#301 = DIRECTION ( 'NONE',  ( 3.491481338843133355E-15, -0.000000000000000000, 1.000000000000000000 ) ) ;
#302 = CIRCLE ( 'NONE', #218, 1.999999999999998224 ) ;
#303 = CARTESIAN_POINT ( 'NONE',  ( 2.890321064242941196E-14, -1.800000000000001155, 8.000000000000000000 ) ) ;
#304 = DIRECTION ( 'NONE',  ( 0.000000000000000000, -1.000000000000000000, 0.000000000000000000 ) ) ;
#305 = UNCERTAINTY_MEASURE_WITH_UNIT (LENGTH_MEASURE( 1.000000000000000082E-05 ), #50, 'distance_accuracy_value', 'NONE');
#306 = CYLINDRICAL_SURFACE ( 'NONE', #12, 1.799999999999999600 ) ;
#307 = DIRECTION ( 'NONE',  ( -3.491481338843133355E-15, 0.000000000000000000, -1.000000000000000000 ) ) ;
#308 = CARTESIAN_POINT ( 'NONE',  ( 8.780502649482347214E-14, -1.999999999999996669, 8.556417083418351055 ) ) ;
#309 = COLOUR_RGB ( '',0.8980392156862745390, 0.9176470588235293713, 0.9294117647058823817 ) ;
#310 = FILL_AREA_STYLE_COLOUR ( '', #120 ) ;
#311 = APPLICATION_PROTOCOL_DEFINITION ( 'draft international standard', 'automotive_design', 1998, #54 ) ;
#312 = DIRECTION ( 'NONE',  ( 1.000000000000000000, 0.000000000000000000, -3.491481338843133355E-15 ) ) ;
#313 = EDGE_CURVE ( 'NONE', #287, #262, #279, .T. ) ;
#314 = MECHANICAL_DESIGN_GEOMETRIC_PRESENTATION_REPRESENTATION (  '', ( #127 ), #235 ) ;
#315 = DIRECTION ( 'NONE',  ( -3.491481338843133355E-15, 1.224646799147353454E-16, -1.000000000000000000 ) ) ;
#316 = DIRECTION ( 'NONE',  ( 1.000000000000000000, 0.000000000000000000, 0.000000000000000000 ) ) ;
#317 = CARTESIAN_POINT ( 'NONE',  ( 1.800000000000000044, 0.000000000000000000, -6.284666409917640040E-15 ) ) ;
#318 = VECTOR ( 'NONE', #172, 1000.000000000000000 ) ;
#319 = ORIENTED_EDGE ( 'NONE', *, *, #49, .F. ) ;
#320 = ORIENTED_EDGE ( 'NONE', *, *, #211, .F. ) ;
#321 = ORIENTED_EDGE ( 'NONE', *, *, #132, .F. ) ;
#322 = ADVANCED_FACE ( 'NONE', ( #251 ), #197, .T. ) ;
#323 = CARTESIAN_POINT ( 'NONE',  ( 1.452456236958743223E-13, 1.999999999999993117, 41.59999999999999432 ) ) ;
#324 = DIRECTION ( 'NONE',  ( 3.491481338843133355E-15, -0.000000000000000000, 1.000000000000000000 ) ) ;
#325 = LINE ( 'NONE', #165, #41 ) ;
#326 = AXIS2_PLACEMENT_3D ( 'NONE', #195, #141, #145 ) ;
#327 = ORIENTED_EDGE ( 'NONE', *, *, #257, .T. ) ;
#328 = DIRECTION ( 'NONE',  ( 4.275831445896958607E-31, 1.000000000000000000, 1.224646799147353454E-16 ) ) ;
#329 = CARTESIAN_POINT ( 'NONE',  ( -1.799999999999971179, 2.204364238465234590E-16, 8.000000000000007105 ) ) ;
#330 = FACE_OUTER_BOUND ( 'NONE', #101, .T. ) ;
#331 = CARTESIAN_POINT ( 'NONE',  ( 2.793185071074506684E-14, 0.000000000000000000, 8.000000000000000000 ) ) ;
#332 = VECTOR ( 'NONE', #274, 1000.000000000000114 ) ;
#333 = CARTESIAN_POINT ( 'NONE',  ( 2.913589353426741127E-14, 1.799999999999999156, 8.000000000000000000 ) ) ;
#334 = AXIS2_PLACEMENT_3D ( 'NONE', #25, #125, #212 ) ;
#335 = AXIS2_PLACEMENT_3D ( 'NONE', #167, #272, #108 ) ;
#336 = SURFACE_STYLE_USAGE ( .BOTH. , #95 ) ;
#337 = ORIENTED_EDGE ( 'NONE', *, *, #64, .T. ) ;
#338 = CONICAL_SURFACE ( 'NONE', #67, 1.999999999999998224, 0.7853981633974528309 ) ;
#339 = AXIS2_PLACEMENT_3D ( 'NONE', #249, #42, #34 ) ;
#340 = ORIENTED_EDGE ( 'NONE', *, *, #74, .T. ) ;
#341 = ORIENTED_EDGE ( 'NONE', *, *, #23, .T. ) ;
#342 = ORIENTED_EDGE ( 'NONE', *, *, #298, .F. ) ;
#343 = PRESENTATION_LAYER_ASSIGNMENT (  '', '', ( #127 ) ) ;
ENDSEC;
END-ISO-10303-21;
