ISO-10303-21;
HEADER;
FILE_DESCRIPTION (( 'STEP AP214' ),
    '1' );
FILE_NAME ('41574.step',
    '2024-04-04T09:32:57',
    ( '' ),
    ( '' ),
    'SwSTEP 2.0',
    'SolidWorks 2022',
    '' );
FILE_SCHEMA (( 'AUTOMOTIVE_DESIGN' ));
ENDSEC;

DATA;
#1 = EDGE_LOOP ( 'NONE', ( #103, #52, #131, #339 ) ) ;
#2 = EDGE_CURVE ( 'NONE', #289, #47, #271, .T. ) ;
#3 = CARTESIAN_POINT ( 'NONE',  ( 2.356749903719115015E-14, 1.499999999999998668, 6.750000000000000000 ) ) ;
#4 = DIRECTION ( 'NONE',  ( -3.491481338843133355E-15, 1.224646799147371450E-16, -1.000000000000000000 ) ) ;
#5 = PRESENTATION_LAYER_ASSIGNMENT (  '', '', ( #328 ) ) ;
#6 = CARTESIAN_POINT ( 'NONE',  ( 0.000000000000000000, 0.000000000000000000, 0.000000000000000000 ) ) ;
#7 = SURFACE_SIDE_STYLE ('',( #192 ) ) ;
#8 = LINE ( 'NONE', #255, #196 ) ;
#9 = STYLED_ITEM ( 'NONE', ( #325 ), #19 ) ;
#10 = LINE ( 'NONE', #224, #261 ) ;
#11 = DIRECTION ( 'NONE',  ( 1.000000000000000000, 0.000000000000000000, -3.469446951953616161E-15 ) ) ;
#12 = AXIS2_PLACEMENT_3D ( 'NONE', #6, #299, #142 ) ;
#13 = EDGE_CURVE ( 'NONE', #70, #289, #140, .T. ) ;
#14 = LINE ( 'NONE', #86, #342 ) ;
#15 = STYLED_ITEM ( 'NONE', ( #274 ), #29 ) ;
#16 = AXIS2_PLACEMENT_3D ( 'NONE', #201, #303, #278 ) ;
#17 = ORIENTED_EDGE ( 'NONE', *, *, #13, .F. ) ;
#18 = CARTESIAN_POINT ( 'NONE',  ( 1.459439199636429616E-13, 1.599999999999988542, 42.00000000000000000 ) ) ;
#19 = ADVANCED_BREP_SHAPE_REPRESENTATION ( '41574', ( #141, #29, #118 ), #333 ) ;
#20 = AXIS2_PLACEMENT_3D ( 'NONE', #276, #250, #61 ) ;
#21 = FACE_OUTER_BOUND ( 'NONE', #265, .T. ) ;
#22 = ORIENTED_EDGE ( 'NONE', *, *, #223, .T. ) ;
#23 = CYLINDRICAL_SURFACE ( 'NONE', #80, 1.499999999999999112 ) ;
#24 = ORIENTED_EDGE ( 'NONE', *, *, #188, .T. ) ;
#25 = CARTESIAN_POINT ( 'NONE',  ( 1.452456236958743476E-13, -5.094530684452989894E-15, 41.60000000000000142 ) ) ;
#26 = ORIENTED_EDGE ( 'NONE', *, *, #95, .T. ) ;
#27 = DIRECTION ( 'NONE',  ( -3.491481338843133355E-15, 1.224646799147353454E-16, -1.000000000000000000 ) ) ;
#28 = ORIENTED_EDGE ( 'NONE', *, *, #223, .F. ) ;
#29 = MANIFOLD_SOLID_BREP ( 'Corps-Déplacer/Copier1[2]', #161 ) ;
#30 = ORIENTED_EDGE ( 'NONE', *, *, #67, .T. ) ;
#31 = CARTESIAN_POINT ( 'NONE',  ( 2.842429869561295464E-14, -9.969901894742632755E-16, 8.141042708545896289 ) ) ;
#32 =( NAMED_UNIT ( * ) PLANE_ANGLE_UNIT ( ) SI_UNIT ( $, .RADIAN. ) );
#33 = AXIS2_PLACEMENT_3D ( 'NONE', #318, #110, #76 ) ;
#34 = CYLINDRICAL_SURFACE ( 'NONE', #12, 1.999999999999998224 ) ;
#35 =( LENGTH_UNIT ( ) NAMED_UNIT ( * ) SI_UNIT ( .MILLI., .METRE. ) );
#36 = ADVANCED_FACE ( 'NONE', ( #320 ), #272, .F. ) ;
#37 = SURFACE_STYLE_FILL_AREA ( #43 ) ;
#38 = EDGE_CURVE ( 'NONE', #128, #289, #109, .T. ) ;
#39 = DIRECTION ( 'NONE',  ( 1.000000000000000000, 0.000000000000000000, -3.491481338843133355E-15 ) ) ;
#40 = EDGE_CURVE ( 'NONE', #267, #128, #330, .T. ) ;
#41 = AXIS2_PLACEMENT_3D ( 'NONE', #269, #4, #322 ) ;
#42 = AXIS2_PLACEMENT_3D ( 'NONE', #281, #189, #159 ) ;
#43 = FILL_AREA_STYLE ('',( #228 ) ) ;
#44 = LINE ( 'NONE', #182, #273 ) ;
#45 = FACE_OUTER_BOUND ( 'NONE', #209, .T. ) ;
#46 = COLOUR_RGB ( '',0.8980392156862745390, 0.9176470588235293713, 0.9294117647058823817 ) ;
#47 = VERTEX_POINT ( 'NONE', #217 ) ;
#48 = CIRCLE ( 'NONE', #149, 1.499999999999998668 ) ;
#49 = CARTESIAN_POINT ( 'NONE',  ( 0.000000000000000000, 0.000000000000000000, 0.000000000000000000 ) ) ;
#50 = ORIENTED_EDGE ( 'NONE', *, *, #319, .F. ) ;
#51 = PLANE ( 'NONE',  #42 ) ;
#52 = ORIENTED_EDGE ( 'NONE', *, *, #67, .F. ) ;
#53 = PRODUCT ( '41574', '41574', '', ( #337 ) ) ;
#54 = ORIENTED_EDGE ( 'NONE', *, *, #321, .F. ) ;
#55 = FACE_OUTER_BOUND ( 'NONE', #254, .T. ) ;
#56 = DIRECTION ( 'NONE',  ( 3.491481338843133355E-15, -1.224646799147353454E-16, 1.000000000000000000 ) ) ;
#57 = CARTESIAN_POINT ( 'NONE',  ( -1.499999999999975575, 1.836970198721028948E-16, 6.750000000000005329 ) ) ;
#58 = AXIS2_PLACEMENT_3D ( 'NONE', #147, #251, #116 ) ;
#59 =( LENGTH_UNIT ( ) NAMED_UNIT ( * ) SI_UNIT ( .MILLI., .METRE. ) );
#60 = FILL_AREA_STYLE ('',( #135 ) ) ;
#61 = DIRECTION ( 'NONE',  ( 0.000000000000000000, -1.000000000000000000, 0.000000000000000000 ) ) ;
#62 = CARTESIAN_POINT ( 'NONE',  ( 2.356749903719115015E-14, 0.000000000000000000, 6.750000000000000000 ) ) ;
#63 =( NAMED_UNIT ( * ) SI_UNIT ( $, .STERADIAN. ) SOLID_ANGLE_UNIT ( ) );
#64 = CARTESIAN_POINT ( 'NONE',  ( -1.499999999999975131, 1.836970198721028701E-16, 6.750000000000005329 ) ) ;
#65 = FILL_AREA_STYLE ('',( #306 ) ) ;
#66 = ORIENTED_EDGE ( 'NONE', *, *, #40, .F. ) ;
#67 = EDGE_CURVE ( 'NONE', #160, #206, #226, .T. ) ;
#68 = DIRECTION ( 'NONE',  ( 1.000000000000000000, 0.000000000000000000, -3.491481338843133355E-15 ) ) ;
#69 = CARTESIAN_POINT ( 'NONE',  ( 2.842429869561295464E-14, 1.999999999999995337, 8.141042708545896289 ) ) ;
#70 = VERTEX_POINT ( 'NONE', #245 ) ;
#71 = ORIENTED_EDGE ( 'NONE', *, *, #139, .F. ) ;
#72 = CONICAL_SURFACE ( 'NONE', #152, 1.999999999999998224, 0.7853981633974485010 ) ;
#73 = ORIENTED_EDGE ( 'NONE', *, *, #95, .F. ) ;
#74 = ADVANCED_FACE ( 'NONE', ( #55 ), #167, .T. ) ;
#75 = AXIS2_PLACEMENT_3D ( 'NONE', #62, #200, #11 ) ;
#76 = DIRECTION ( 'NONE',  ( 0.000000000000000000, 1.000000000000000000, 0.000000000000000000 ) ) ;
#77 = DIRECTION ( 'NONE',  ( -2.930988785010413267E-14, -1.000000000000000000, 0.000000000000000000 ) ) ;
#78 = SURFACE_SIDE_STYLE ('',( #111 ) ) ;
#79 = DIRECTION ( 'NONE',  ( -3.491481338843133355E-15, 0.000000000000000000, -1.000000000000000000 ) ) ;
#80 = AXIS2_PLACEMENT_3D ( 'NONE', #121, #341, #211 ) ;
#81 =( LENGTH_UNIT ( ) NAMED_UNIT ( * ) SI_UNIT ( .MILLI., .METRE. ) );
#82 = UNCERTAINTY_MEASURE_WITH_UNIT (LENGTH_MEASURE( 1.000000000000000082E-05 ), #59, 'distance_accuracy_value', 'NONE');
#83 = PRESENTATION_LAYER_ASSIGNMENT (  '', '', ( #15 ) ) ;
#84 = FACE_OUTER_BOUND ( 'NONE', #1, .T. ) ;
#85 = SURFACE_STYLE_USAGE ( .BOTH. , #327 ) ;
#86 = CARTESIAN_POINT ( 'NONE',  ( 1.500000000000022871, 0.000000000000000000, 6.749999999999994671 ) ) ;
#87 = DIRECTION ( 'NONE',  ( 0.000000000000000000, 1.000000000000000000, 0.000000000000000000 ) ) ;
#88 = AXIS2_PLACEMENT_3D ( 'NONE', #194, #56, #246 ) ;
#89 = CIRCLE ( 'NONE', #58, 1.499999999999998668 ) ;
#90 = FACE_OUTER_BOUND ( 'NONE', #183, .T. ) ;
#91 = EDGE_LOOP ( 'NONE', ( #184, #117, #208, #17 ) ) ;
#92 = EDGE_CURVE ( 'NONE', #70, #314, #296, .T. ) ;
#93 = DIRECTION ( 'NONE',  ( -3.491481338843133355E-15, 1.224646799147371450E-16, -1.000000000000000000 ) ) ;
#94 = ORIENTED_EDGE ( 'NONE', *, *, #225, .F. ) ;
#95 = EDGE_CURVE ( 'NONE', #286, #258, #191, .T. ) ;
#96 = APPLICATION_PROTOCOL_DEFINITION ( 'draft international standard', 'automotive_design', 1998, #308 ) ;
#97 = CARTESIAN_POINT ( 'NONE',  ( 2.356749903719115015E-14, -1.500000000000000444, 6.750000000000000000 ) ) ;
#98 = ADVANCED_FACE ( 'NONE', ( #170 ), #34, .T. ) ;
#99 = AXIS2_PLACEMENT_3D ( 'NONE', #171, #79, #295 ) ;
#100 = ORIENTED_EDGE ( 'NONE', *, *, #38, .T. ) ;
#101 = AXIS2_PLACEMENT_3D ( 'NONE', #3, #27, #129 ) ;
#102 = DIRECTION ( 'NONE',  ( 1.000000000000000000, 0.000000000000000000, -3.491481338843133355E-15 ) ) ;
#103 = ORIENTED_EDGE ( 'NONE', *, *, #112, .F. ) ;
#104 = APPLICATION_CONTEXT ( 'automotive_design' ) ;
#105 = ORIENTED_EDGE ( 'NONE', *, *, #221, .F. ) ;
#106 = DIRECTION ( 'NONE',  ( 3.327098416510787610E-15, 0.3382550599108819500, 0.9410544694355824635 ) ) ;
#107 = MECHANICAL_DESIGN_GEOMETRIC_PRESENTATION_REPRESENTATION (  '', ( #9 ), #205 ) ;
#108 = DIRECTION ( 'NONE',  ( 0.000000000000000000, 1.000000000000000000, 0.000000000000000000 ) ) ;
#109 = LINE ( 'NONE', #275, #136 ) ;
#110 = DIRECTION ( 'NONE',  ( -3.491481338843133355E-15, 1.224646799147353454E-16, -1.000000000000000000 ) ) ;
#111 = SURFACE_STYLE_FILL_AREA ( #60 ) ;
#112 = EDGE_CURVE ( 'NONE', #206, #314, #8, .T. ) ;
#113 = UNCERTAINTY_MEASURE_WITH_UNIT (LENGTH_MEASURE( 1.000000000000000082E-05 ), #156, 'distance_accuracy_value', 'NONE');
#114 = DIRECTION ( 'NONE',  ( 3.491481338843133355E-15, -0.000000000000000000, 1.000000000000000000 ) ) ;
#115 = AXIS2_PLACEMENT_3D ( 'NONE', #187, #324, #138 ) ;
#116 = DIRECTION ( 'NONE',  ( 1.000000000000000000, 0.000000000000000000, -3.469446951953617344E-15 ) ) ;
#117 = ORIENTED_EDGE ( 'NONE', *, *, #309, .T. ) ;
#118 = AXIS2_PLACEMENT_3D ( 'NONE', #305, #263, #236 ) ;
#119 =( NAMED_UNIT ( * ) SI_UNIT ( $, .STERADIAN. ) SOLID_ANGLE_UNIT ( ) );
#120 = DIRECTION ( 'NONE',  ( 0.000000000000000000, 1.000000000000000000, 0.000000000000000000 ) ) ;
#121 = CARTESIAN_POINT ( 'NONE',  ( 2.356749903719115015E-14, 0.000000000000000000, 6.750000000000000000 ) ) ;
#122 = EDGE_LOOP ( 'NONE', ( #71, #312, #154, #181 ) ) ;
#123 = AXIS2_PLACEMENT_3D ( 'NONE', #49, #315, #102 ) ;
#124 = DIRECTION ( 'NONE',  ( 1.000000000000000000, 0.000000000000000000, -3.469446951953617344E-15 ) ) ;
#125 = SHAPE_DEFINITION_REPRESENTATION ( #155, #19 ) ;
#126 = ADVANCED_FACE ( 'NONE', ( #148 ), #230, .T. ) ;
#127 = DIRECTION ( 'NONE',  ( 0.000000000000000000, 1.000000000000000000, 0.000000000000000000 ) ) ;
#128 = VERTEX_POINT ( 'NONE', #144 ) ;
#129 = DIRECTION ( 'NONE',  ( 4.275831445896959482E-31, 1.000000000000000000, 1.224646799147353454E-16 ) ) ;
#130 =( GEOMETRIC_REPRESENTATION_CONTEXT ( 3 ) GLOBAL_UNCERTAINTY_ASSIGNED_CONTEXT ( ( #248 ) ) GLOBAL_UNIT_ASSIGNED_CONTEXT ( ( #81, #32, #195 ) ) REPRESENTATION_CONTEXT ( 'NONE', 'WORKASPACE' ) );
#131 = ORIENTED_EDGE ( 'NONE', *, *, #168, .T. ) ;
#132 = COLOUR_RGB ( '',0.8980392156862745390, 0.9176470588235293713, 0.9294117647058823817 ) ;
#133 = EDGE_LOOP ( 'NONE', ( #336, #24 ) ) ;
#134 = ADVANCED_FACE ( 'NONE', ( #84 ), #72, .T. ) ;
#135 = FILL_AREA_STYLE_COLOUR ( '', #46 ) ;
#136 = VECTOR ( 'NONE', #106, 1000.000000000000000 ) ;
#137 = CIRCLE ( 'NONE', #145, 1.999999999999998224 ) ;
#138 = DIRECTION ( 'NONE',  ( 0.000000000000000000, -1.000000000000000000, 0.000000000000000000 ) ) ;
#139 = EDGE_CURVE ( 'NONE', #206, #160, #202, .T. ) ;
#140 = LINE ( 'NONE', #164, #218 ) ;
#141 = MANIFOLD_SOLID_BREP ( 'Corps-Déplacer/Copier1[1]', #198 ) ;
#142 = DIRECTION ( 'NONE',  ( 4.275831445896958607E-31, 1.000000000000000000, 1.224646799147353454E-16 ) ) ;
#143 = AXIS2_PLACEMENT_3D ( 'NONE', #31, #292, #108 ) ;
#144 = CARTESIAN_POINT ( 'NONE',  ( 2.621021205625283733E-14, 1.499999999999998668, 6.750000000000000000 ) ) ;
#145 = AXIS2_PLACEMENT_3D ( 'NONE', #25, #93, #77 ) ;
#146 = DIRECTION ( 'NONE',  ( -2.382254525458715892E-15, -0.7071067811865476838, -0.7071067811865474617 ) ) ;
#147 = CARTESIAN_POINT ( 'NONE',  ( 2.356749903719115015E-14, 0.000000000000000000, 6.750000000000000000 ) ) ;
#148 = FACE_OUTER_BOUND ( 'NONE', #240, .T. ) ;
#149 = AXIS2_PLACEMENT_3D ( 'NONE', #180, #244, #124 ) ;
#150 = FACE_OUTER_BOUND ( 'NONE', #238, .T. ) ;
#151 =( NAMED_UNIT ( * ) PLANE_ANGLE_UNIT ( ) SI_UNIT ( $, .RADIAN. ) );
#152 = AXIS2_PLACEMENT_3D ( 'NONE', #279, #252, #120 ) ;
#153 = FACE_OUTER_BOUND ( 'NONE', #133, .T. ) ;
#154 = ORIENTED_EDGE ( 'NONE', *, *, #92, .F. ) ;
#155 = PRODUCT_DEFINITION_SHAPE ( 'NONE', 'NONE',  #311 ) ;
#156 =( LENGTH_UNIT ( ) NAMED_UNIT ( * ) SI_UNIT ( .MILLI., .METRE. ) );
#157 = ORIENTED_EDGE ( 'NONE', *, *, #287, .F. ) ;
#158 = MECHANICAL_DESIGN_GEOMETRIC_PRESENTATION_REPRESENTATION (  '', ( #328 ), #210 ) ;
#159 = DIRECTION ( 'NONE',  ( -4.275831445896959482E-31, -1.000000000000000000, -1.224646799147353454E-16 ) ) ;
#160 = VERTEX_POINT ( 'NONE', #18 ) ;
#161 = CLOSED_SHELL ( 'NONE', ( #264, #199, #36, #259 ) ) ;
#162 = ORIENTED_EDGE ( 'NONE', *, *, #139, .T. ) ;
#163 = AXIS2_PLACEMENT_3D ( 'NONE', #247, #204, #229 ) ;
#164 = CARTESIAN_POINT ( 'NONE',  ( 8.551662891793910207E-31, 1.999999999999998224, 2.449293598294704935E-16 ) ) ;
#165 = ADVANCED_FACE ( 'NONE', ( #332 ), #177, .T. ) ;
#166 = CARTESIAN_POINT ( 'NONE',  ( 1.499999999999999778, 0.000000000000000000, -5.237222008264699244E-15 ) ) ;
#167 = CONICAL_SURFACE ( 'NONE', #88, 1.499999999999999556, 0.3450620389298191815 ) ;
#168 = EDGE_CURVE ( 'NONE', #160, #70, #10, .T. ) ;
#169 = PRODUCT_DEFINITION_FORMATION_WITH_SPECIFIED_SOURCE ( 'ANY', '', #53, .NOT_KNOWN. ) ;
#170 = FACE_OUTER_BOUND ( 'NONE', #91, .T. ) ;
#171 = CARTESIAN_POINT ( 'NONE',  ( 2.356749903719115015E-14, 1.499999999999998668, 6.750000000000000000 ) ) ;
#172 = DIRECTION ( 'NONE',  ( 3.491481338843133355E-15, -1.224646799147353454E-16, 1.000000000000000000 ) ) ;
#173 = UNCERTAINTY_MEASURE_WITH_UNIT (LENGTH_MEASURE( 1.000000000000000082E-05 ), #35, 'distance_accuracy_value', 'NONE');
#174 = CARTESIAN_POINT ( 'NONE',  ( 2.356749903719115015E-14, -8.266365894244636305E-16, 6.750000000000000000 ) ) ;
#175 = CARTESIAN_POINT ( 'NONE',  ( 0.000000000000000000, 0.000000000000000000, 0.000000000000000000 ) ) ;
#176 =( NAMED_UNIT ( * ) PLANE_ANGLE_UNIT ( ) SI_UNIT ( $, .RADIAN. ) );
#177 = CYLINDRICAL_SURFACE ( 'NONE', #163, 1.999999999999998224 ) ;
#178 = CIRCLE ( 'NONE', #291, 1.499999999999999556 ) ;
#179 = CARTESIAN_POINT ( 'NONE',  ( -1.499999999999999778, 1.836970198721043986E-16, 5.237222008264698455E-15 ) ) ;
#180 = CARTESIAN_POINT ( 'NONE',  ( 2.356749903719115015E-14, 0.000000000000000000, 6.750000000000000000 ) ) ;
#181 = ORIENTED_EDGE ( 'NONE', *, *, #168, .F. ) ;
#182 = CARTESIAN_POINT ( 'NONE',  ( 2.449293598294696061E-16, -1.999999999999998224, -2.449293598294712824E-16 ) ) ;
#183 = EDGE_LOOP ( 'NONE', ( #105, #50 ) ) ;
#184 = ORIENTED_EDGE ( 'NONE', *, *, #92, .T. ) ;
#185 = ORIENTED_EDGE ( 'NONE', *, *, #188, .F. ) ;
#186 = ORIENTED_EDGE ( 'NONE', *, *, #221, .T. ) ;
#187 = CARTESIAN_POINT ( 'NONE',  ( 1.466422162314116009E-13, -5.143516556418884900E-15, 42.00000000000000000 ) ) ;
#188 = EDGE_CURVE ( 'NONE', #128, #267, #178, .T. ) ;
#189 = DIRECTION ( 'NONE',  ( 3.491481338843133355E-15, -1.224646799147353454E-16, 1.000000000000000000 ) ) ;
#190 = PRODUCT_RELATED_PRODUCT_CATEGORY ( 'part', '', ( #53 ) ) ;
#191 = LINE ( 'NONE', #57, #323 ) ;
#192 = SURFACE_STYLE_FILL_AREA ( #65 ) ;
#193 = AXIS2_PLACEMENT_3D ( 'NONE', #237, #239, #68 ) ;
#194 = CARTESIAN_POINT ( 'NONE',  ( 2.356749903719115015E-14, -8.266365894244636305E-16, 6.750000000000000000 ) ) ;
#195 =( NAMED_UNIT ( * ) SI_UNIT ( $, .STERADIAN. ) SOLID_ANGLE_UNIT ( ) );
#196 = VECTOR ( 'NONE', #146, 1000.000000000000000 ) ;
#197 = DIRECTION ( 'NONE',  ( 0.000000000000000000, -1.000000000000000000, 0.000000000000000000 ) ) ;
#198 = CLOSED_SHELL ( 'NONE', ( #227, #126, #98, #249, #242, #165, #74, #134 ) ) ;
#199 = ADVANCED_FACE ( 'NONE', ( #150 ), #301, .T. ) ;
#200 = DIRECTION ( 'NONE',  ( 3.491481338843133355E-15, -0.000000000000000000, 1.000000000000000000 ) ) ;
#201 = CARTESIAN_POINT ( 'NONE',  ( 1.452456236958743476E-13, -5.094530684452989894E-15, 41.60000000000000142 ) ) ;
#202 = CIRCLE ( 'NONE', #20, 1.599999999999993872 ) ;
#203 = DIRECTION ( 'NONE',  ( 3.491481338843133355E-15, -0.000000000000000000, 1.000000000000000000 ) ) ;
#204 = DIRECTION ( 'NONE',  ( -3.491481338843133355E-15, 1.224646799147353454E-16, -1.000000000000000000 ) ) ;
#205 =( GEOMETRIC_REPRESENTATION_CONTEXT ( 3 ) GLOBAL_UNCERTAINTY_ASSIGNED_CONTEXT ( ( #82 ) ) GLOBAL_UNIT_ASSIGNED_CONTEXT ( ( #59, #151, #63 ) ) REPRESENTATION_CONTEXT ( 'NONE', 'WORKASPACE' ) );
#206 = VERTEX_POINT ( 'NONE', #302 ) ;
#207 = DIRECTION ( 'NONE',  ( 3.285674118869261421E-15, -0.3382550599108821165, 0.9410544694355824635 ) ) ;
#208 = ORIENTED_EDGE ( 'NONE', *, *, #2, .F. ) ;
#209 = EDGE_LOOP ( 'NONE', ( #30, #162 ) ) ;
#210 =( GEOMETRIC_REPRESENTATION_CONTEXT ( 3 ) GLOBAL_UNCERTAINTY_ASSIGNED_CONTEXT ( ( #173 ) ) GLOBAL_UNIT_ASSIGNED_CONTEXT ( ( #35, #176, #119 ) ) REPRESENTATION_CONTEXT ( 'NONE', 'WORKASPACE' ) );
#211 = DIRECTION ( 'NONE',  ( 1.000000000000000000, 0.000000000000000000, -3.469446951953616161E-15 ) ) ;
#212 = ORIENTED_EDGE ( 'NONE', *, *, #287, .T. ) ;
#213 = AXIS2_PLACEMENT_3D ( 'NONE', #174, #172, #197 ) ;
#214 = ORIENTED_EDGE ( 'NONE', *, *, #257, .T. ) ;
#215 = PRESENTATION_LAYER_ASSIGNMENT (  '', '', ( #9 ) ) ;
#216 = DIRECTION ( 'NONE',  ( -3.491481338843133355E-15, 1.224646799147353454E-16, -1.000000000000000000 ) ) ;
#217 = CARTESIAN_POINT ( 'NONE',  ( 8.707989055557308985E-14, -1.999999999999997113, 8.141042708545896289 ) ) ;
#218 = VECTOR ( 'NONE', #216, 1000.000000000000000 ) ;
#219 = CIRCLE ( 'NONE', #123, 1.499999999999999778 ) ;
#220 = SURFACE_STYLE_USAGE ( .BOTH. , #78 ) ;
#221 = EDGE_CURVE ( 'NONE', #241, #286, #253, .T. ) ;
#222 = DIRECTION ( 'NONE',  ( -2.468850131082264555E-15, 0.7071067811865479058, -0.7071067811865472397 ) ) ;
#223 = EDGE_CURVE ( 'NONE', #241, #268, #14, .T. ) ;
#224 = CARTESIAN_POINT ( 'NONE',  ( 1.452456236958743476E-13, 1.999999999999993117, 41.60000000000000142 ) ) ;
#225 = EDGE_CURVE ( 'NONE', #268, #258, #89, .T. ) ;
#226 = CIRCLE ( 'NONE', #115, 1.599999999999993872 ) ;
#227 = ADVANCED_FACE ( 'NONE', ( #331 ), #326, .T. ) ;
#228 = FILL_AREA_STYLE_COLOUR ( '', #282 ) ;
#229 = DIRECTION ( 'NONE',  ( 4.275831445896958607E-31, 1.000000000000000000, 1.224646799147353454E-16 ) ) ;
#230 = CONICAL_SURFACE ( 'NONE', #213, 1.499999999999999556, 0.3450620389298191815 ) ;
#231 = APPLICATION_PROTOCOL_DEFINITION ( 'draft international standard', 'automotive_design', 1998, #104 ) ;
#232 = AXIS2_PLACEMENT_3D ( 'NONE', #175, #114, #39 ) ;
#233 = ORIENTED_EDGE ( 'NONE', *, *, #2, .T. ) ;
#234 = DIRECTION ( 'NONE',  ( -3.491481338843133355E-15, 1.224646799147353454E-16, -1.000000000000000000 ) ) ;
#235 = ORIENTED_EDGE ( 'NONE', *, *, #319, .T. ) ;
#236 = DIRECTION ( 'NONE',  ( 1.000000000000000000, 0.000000000000000000, 0.000000000000000000 ) ) ;
#237 = CARTESIAN_POINT ( 'NONE',  ( 4.275831445896956527E-32, 1.499999999999999778, 1.224646799147352653E-17 ) ) ;
#238 = EDGE_LOOP ( 'NONE', ( #73, #235, #22, #157 ) ) ;
#239 = DIRECTION ( 'NONE',  ( 3.491481338843133355E-15, -0.000000000000000000, 1.000000000000000000 ) ) ;
#240 = EDGE_LOOP ( 'NONE', ( #185, #100, #233, #54 ) ) ;
#241 = VERTEX_POINT ( 'NONE', #166 ) ;
#242 = ADVANCED_FACE ( 'NONE', ( #45 ), #51, .T. ) ;
#243 = DIRECTION ( 'NONE',  ( 3.491481338843133355E-15, -0.000000000000000000, 1.000000000000000000 ) ) ;
#244 = DIRECTION ( 'NONE',  ( 3.491481338843133355E-15, -0.000000000000000000, 1.000000000000000000 ) ) ;
#245 = CARTESIAN_POINT ( 'NONE',  ( 8.683496119574365742E-14, 1.999999999999993117, 41.60000000000000142 ) ) ;
#246 = DIRECTION ( 'NONE',  ( 0.000000000000000000, -1.000000000000000000, 0.000000000000000000 ) ) ;
#247 = CARTESIAN_POINT ( 'NONE',  ( 0.000000000000000000, 0.000000000000000000, 0.000000000000000000 ) ) ;
#248 = UNCERTAINTY_MEASURE_WITH_UNIT (LENGTH_MEASURE( 1.000000000000000082E-05 ), #81, 'distance_accuracy_value', 'NONE');
#249 = ADVANCED_FACE ( 'NONE', ( #153 ), #335, .T. ) ;
#250 = DIRECTION ( 'NONE',  ( 3.491481338843133355E-15, -1.224646799147353454E-16, 1.000000000000000000 ) ) ;
#251 = DIRECTION ( 'NONE',  ( 3.491481338843133355E-15, -0.000000000000000000, 1.000000000000000000 ) ) ;
#252 = DIRECTION ( 'NONE',  ( -3.491481338843133355E-15, 1.224646799147371450E-16, -1.000000000000000000 ) ) ;
#253 = CIRCLE ( 'NONE', #232, 1.499999999999999778 ) ;
#254 = EDGE_LOOP ( 'NONE', ( #262, #66, #334, #214 ) ) ;
#255 = CARTESIAN_POINT ( 'NONE',  ( 1.454905530557038179E-13, -2.000000000000003553, 41.60000000000000142 ) ) ;
#256 =( NAMED_UNIT ( * ) SI_UNIT ( $, .STERADIAN. ) SOLID_ANGLE_UNIT ( ) );
#257 = EDGE_CURVE ( 'NONE', #47, #289, #285, .T. ) ;
#258 = VERTEX_POINT ( 'NONE', #64 ) ;
#259 = ADVANCED_FACE ( 'NONE', ( #90 ), #310, .F. ) ;
#260 = CARTESIAN_POINT ( 'NONE',  ( 2.842429869561295464E-14, -9.969901894742632755E-16, 8.141042708545896289 ) ) ;
#261 = VECTOR ( 'NONE', #222, 1000.000000000000000 ) ;
#262 = ORIENTED_EDGE ( 'NONE', *, *, #38, .F. ) ;
#263 = DIRECTION ( 'NONE',  ( 0.000000000000000000, 0.000000000000000000, 1.000000000000000000 ) ) ;
#264 = ADVANCED_FACE ( 'NONE', ( #21 ), #23, .T. ) ;
#265 = EDGE_LOOP ( 'NONE', ( #186, #26, #94, #28 ) ) ;
#266 = DIRECTION ( 'NONE',  ( -3.491481338843133355E-15, 1.224646799147353454E-16, -1.000000000000000000 ) ) ;
#267 = VERTEX_POINT ( 'NONE', #313 ) ;
#268 = VERTEX_POINT ( 'NONE', #284 ) ;
#269 = CARTESIAN_POINT ( 'NONE',  ( 1.452456236958743476E-13, -5.094530684452989894E-15, 41.60000000000000142 ) ) ;
#270 =( NAMED_UNIT ( * ) PLANE_ANGLE_UNIT ( ) SI_UNIT ( $, .RADIAN. ) );
#271 = CIRCLE ( 'NONE', #143, 1.999999999999996225 ) ;
#272 = PLANE ( 'NONE',  #99 ) ;
#273 = VECTOR ( 'NONE', #234, 1000.000000000000000 ) ;
#274 = PRESENTATION_STYLE_ASSIGNMENT (( #220 ) ) ;
#275 = CARTESIAN_POINT ( 'NONE',  ( 2.375119605706324971E-14, 1.499999999999998668, 6.750000000000000000 ) ) ;
#276 = CARTESIAN_POINT ( 'NONE',  ( 1.466422162314116009E-13, -5.143516556418884900E-15, 42.00000000000000000 ) ) ;
#277 = DIRECTION ( 'NONE',  ( -3.491481338843133355E-15, 1.224646799147353454E-16, -1.000000000000000000 ) ) ;
#278 = DIRECTION ( 'NONE',  ( 0.000000000000000000, 1.000000000000000000, 0.000000000000000000 ) ) ;
#279 = CARTESIAN_POINT ( 'NONE',  ( 1.452456236958743476E-13, -5.094530684452989894E-15, 41.60000000000000142 ) ) ;
#280 = VECTOR ( 'NONE', #207, 1000.000000000000114 ) ;
#281 = CARTESIAN_POINT ( 'NONE',  ( 1.466422162314116009E-13, -5.143516556418883322E-15, 42.00000000000000000 ) ) ;
#282 = COLOUR_RGB ( '',0.8980392156862745390, 0.9176470588235293713, 0.9294117647058823817 ) ;
#283 = EDGE_LOOP ( 'NONE', ( #316, #212 ) ) ;
#284 = CARTESIAN_POINT ( 'NONE',  ( 1.500000000000022427, 0.000000000000000000, 6.749999999999994671 ) ) ;
#285 = CIRCLE ( 'NONE', #298, 1.999999999999996225 ) ;
#286 = VERTEX_POINT ( 'NONE', #179 ) ;
#287 = EDGE_CURVE ( 'NONE', #258, #268, #48, .T. ) ;
#288 = ORIENTED_EDGE ( 'NONE', *, *, #13, .T. ) ;
#289 = VERTEX_POINT ( 'NONE', #69 ) ;
#290 = ORIENTED_EDGE ( 'NONE', *, *, #309, .F. ) ;
#291 = AXIS2_PLACEMENT_3D ( 'NONE', #329, #277, #87 ) ;
#292 = DIRECTION ( 'NONE',  ( -3.491481338843133355E-15, 1.224646799147353454E-16, -1.000000000000000000 ) ) ;
#293 = LINE ( 'NONE', #97, #280 ) ;
#294 = EDGE_CURVE ( 'NONE', #314, #70, #137, .T. ) ;
#295 = DIRECTION ( 'NONE',  ( -1.000000000000000000, 0.000000000000000000, 3.491481338843133355E-15 ) ) ;
#296 = CIRCLE ( 'NONE', #41, 1.999999999999998224 ) ;
#297 = SURFACE_STYLE_USAGE ( .BOTH. , #7 ) ;
#298 = AXIS2_PLACEMENT_3D ( 'NONE', #260, #266, #127 ) ;
#299 = DIRECTION ( 'NONE',  ( -3.491481338843133355E-15, 1.224646799147353454E-16, -1.000000000000000000 ) ) ;
#300 = PRODUCT_DEFINITION_CONTEXT ( 'detailed design', #308, 'design' ) ;
#301 = CYLINDRICAL_SURFACE ( 'NONE', #75, 1.499999999999999112 ) ;
#302 = CARTESIAN_POINT ( 'NONE',  ( 1.461643563874895152E-13, -1.599999999999998979, 42.00000000000000000 ) ) ;
#303 = DIRECTION ( 'NONE',  ( -3.491481338843133355E-15, 1.224646799147371450E-16, -1.000000000000000000 ) ) ;
#304 = PRESENTATION_STYLE_ASSIGNMENT (( #85 ) ) ;
#305 = CARTESIAN_POINT ( 'NONE',  ( 0.000000000000000000, 0.000000000000000000, 0.000000000000000000 ) ) ;
#306 = FILL_AREA_STYLE_COLOUR ( '', #132 ) ;
#307 = ORIENTED_EDGE ( 'NONE', *, *, #257, .F. ) ;
#308 = APPLICATION_CONTEXT ( 'automotive_design' ) ;
#309 = EDGE_CURVE ( 'NONE', #314, #47, #44, .T. ) ;
#310 = PLANE ( 'NONE',  #193 ) ;
#311 = PRODUCT_DEFINITION ( 'UNKNOWN', '', #169, #300 ) ;
#312 = ORIENTED_EDGE ( 'NONE', *, *, #112, .T. ) ;
#313 = CARTESIAN_POINT ( 'NONE',  ( 2.599589886640205397E-14, -1.500000000000000444, 6.750000000000000000 ) ) ;
#314 = VERTEX_POINT ( 'NONE', #338 ) ;
#315 = DIRECTION ( 'NONE',  ( 3.491481338843133355E-15, -0.000000000000000000, 1.000000000000000000 ) ) ;
#316 = ORIENTED_EDGE ( 'NONE', *, *, #225, .T. ) ;
#317 = ORIENTED_EDGE ( 'NONE', *, *, #294, .T. ) ;
#318 = CARTESIAN_POINT ( 'NONE',  ( 2.356749903719115015E-14, -8.266365894244636305E-16, 6.750000000000000000 ) ) ;
#319 = EDGE_CURVE ( 'NONE', #286, #241, #219, .T. ) ;
#320 = FACE_OUTER_BOUND ( 'NONE', #283, .T. ) ;
#321 = EDGE_CURVE ( 'NONE', #267, #47, #293, .T. ) ;
#322 = DIRECTION ( 'NONE',  ( 3.019806626980425790E-14, -1.000000000000000000, 0.000000000000000000 ) ) ;
#323 = VECTOR ( 'NONE', #243, 1000.000000000000000 ) ;
#324 = DIRECTION ( 'NONE',  ( 3.491481338843133355E-15, -1.224646799147353454E-16, 1.000000000000000000 ) ) ;
#325 = PRESENTATION_STYLE_ASSIGNMENT (( #297 ) ) ;
#326 = CONICAL_SURFACE ( 'NONE', #16, 1.999999999999998224, 0.7853981633974485010 ) ;
#327 = SURFACE_SIDE_STYLE ('',( #37 ) ) ;
#328 = STYLED_ITEM ( 'NONE', ( #304 ), #141 ) ;
#329 = CARTESIAN_POINT ( 'NONE',  ( 2.356749903719115015E-14, -8.266365894244636305E-16, 6.750000000000000000 ) ) ;
#330 = CIRCLE ( 'NONE', #33, 1.499999999999999556 ) ;
#331 = FACE_OUTER_BOUND ( 'NONE', #122, .T. ) ;
#332 = FACE_OUTER_BOUND ( 'NONE', #343, .T. ) ;
#333 =( GEOMETRIC_REPRESENTATION_CONTEXT ( 3 ) GLOBAL_UNCERTAINTY_ASSIGNED_CONTEXT ( ( #113 ) ) GLOBAL_UNIT_ASSIGNED_CONTEXT ( ( #156, #270, #256 ) ) REPRESENTATION_CONTEXT ( 'NONE', 'WORKASPACE' ) );
#334 = ORIENTED_EDGE ( 'NONE', *, *, #321, .T. ) ;
#335 = PLANE ( 'NONE',  #101 ) ;
#336 = ORIENTED_EDGE ( 'NONE', *, *, #40, .T. ) ;
#337 = PRODUCT_CONTEXT ( 'NONE', #104, 'mechanical' ) ;
#338 = CARTESIAN_POINT ( 'NONE',  ( 8.707989055557306461E-14, -2.000000000000003553, 41.60000000000000142 ) ) ;
#339 = ORIENTED_EDGE ( 'NONE', *, *, #294, .F. ) ;
#340 = MECHANICAL_DESIGN_GEOMETRIC_PRESENTATION_REPRESENTATION (  '', ( #15 ), #130 ) ;
#341 = DIRECTION ( 'NONE',  ( 3.491481338843133355E-15, -0.000000000000000000, 1.000000000000000000 ) ) ;
#342 = VECTOR ( 'NONE', #203, 1000.000000000000000 ) ;
#343 = EDGE_LOOP ( 'NONE', ( #290, #317, #288, #307 ) ) ;
ENDSEC;
END-ISO-10303-21;
