ISO-10303-21;
HEADER;
FILE_DESCRIPTION (( 'STEP AP214' ),
    '1' );
FILE_NAME ('41573.step',
    '2024-04-04T09:32:56',
    ( '' ),
    ( '' ),
    'SwSTEP 2.0',
    'SolidWorks 2022',
    '' );
FILE_SCHEMA (( 'AUTOMOTIVE_DESIGN' ));
ENDSEC;

DATA;
#1 = FILL_AREA_STYLE ('',( #102 ) ) ;
#2 = CARTESIAN_POINT ( 'NONE',  ( 2.199633243471174014E-14, 1.299999999999998934, 6.299999999999999822 ) ) ;
#3 = CARTESIAN_POINT ( 'NONE',  ( 2.199633243471174014E-14, 1.299999999999998934, 6.299999999999999822 ) ) ;
#4 = DIRECTION ( 'NONE',  ( 3.491481338843133355E-15, -0.000000000000000000, 1.000000000000000000 ) ) ;
#5 = DIRECTION ( 'NONE',  ( -3.491481338843133355E-15, 1.224646799147359124E-16, -1.000000000000000000 ) ) ;
#6 = DIRECTION ( 'NONE',  ( -4.275831445896958607E-31, -1.000000000000000000, -1.224646799147353207E-16 ) ) ;
#7 = LINE ( 'NONE', #139, #315 ) ;
#8 = CARTESIAN_POINT ( 'NONE',  ( 2.313914291827672015E-14, 1.299999999999998934, 6.299999999999999822 ) ) ;
#9 = DIRECTION ( 'NONE',  ( 3.641531520770513453E-14, -1.000000000000000000, 0.000000000000000000 ) ) ;
#10 = ADVANCED_FACE ( 'NONE', ( #57 ), #322, .T. ) ;
#11 = AXIS2_PLACEMENT_3D ( 'NONE', #306, #260, #103 ) ;
#12 = CARTESIAN_POINT ( 'NONE',  ( 2.215553651860089772E-14, 1.299999999999998934, 6.299999999999999822 ) ) ;
#13 = LINE ( 'NONE', #117, #85 ) ;
#14 = DIRECTION ( 'NONE',  ( 0.000000000000000000, 0.000000000000000000, 1.000000000000000000 ) ) ;
#15 = SURFACE_SIDE_STYLE ('',( #279 ) ) ;
#16 = EDGE_LOOP ( 'NONE', ( #118, #203, #44, #198 ) ) ;
#17 = PRODUCT_CONTEXT ( 'NONE', #243, 'mechanical' ) ;
#18 = AXIS2_PLACEMENT_3D ( 'NONE', #59, #87, #136 ) ;
#19 = DIRECTION ( 'NONE',  ( 1.000000000000000000, 0.000000000000000000, -3.336006684570785665E-15 ) ) ;
#20 = ORIENTED_EDGE ( 'NONE', *, *, #53, .T. ) ;
#21 = PRESENTATION_LAYER_ASSIGNMENT (  '', '', ( #317 ) ) ;
#22 = SURFACE_STYLE_USAGE ( .BOTH. , #15 ) ;
#23 = VERTEX_POINT ( 'NONE', #54 ) ;
#24 = EDGE_LOOP ( 'NONE', ( #48, #286, #281, #207 ) ) ;
#25 = PRODUCT_RELATED_PRODUCT_CATEGORY ( 'part', '', ( #267 ) ) ;
#26 = AXIS2_PLACEMENT_3D ( 'NONE', #188, #240, #185 ) ;
#27 = EDGE_LOOP ( 'NONE', ( #49, #338, #148, #226 ) ) ;
#28 =( LENGTH_UNIT ( ) NAMED_UNIT ( * ) SI_UNIT ( .MILLI., .METRE. ) );
#29 = CARTESIAN_POINT ( 'NONE',  ( 0.000000000000000000, 0.000000000000000000, 0.000000000000000000 ) ) ;
#30 = ADVANCED_FACE ( 'NONE', ( #294 ), #101, .F. ) ;
#31 =( GEOMETRIC_REPRESENTATION_CONTEXT ( 3 ) GLOBAL_UNCERTAINTY_ASSIGNED_CONTEXT ( ( #150 ) ) GLOBAL_UNIT_ASSIGNED_CONTEXT ( ( #129, #209, #342 ) ) REPRESENTATION_CONTEXT ( 'NONE', 'WORKASPACE' ) );
#32 = DIRECTION ( 'NONE',  ( 0.000000000000000000, 1.000000000000000000, 0.000000000000000000 ) ) ;
#33 = CARTESIAN_POINT ( 'NONE',  ( 2.199633243471174014E-14, 0.000000000000000000, 6.299999999999999822 ) ) ;
#34 = CYLINDRICAL_SURFACE ( 'NONE', #235, 1.299999999999999600 ) ;
#35 = DIRECTION ( 'NONE',  ( 0.000000000000000000, 1.000000000000000000, 0.000000000000000000 ) ) ;
#36 = CARTESIAN_POINT ( 'NONE',  ( 1.326762908760390423E-13, -4.653657836759941941E-15, 38.00000000000000000 ) ) ;
#37 =( LENGTH_UNIT ( ) NAMED_UNIT ( * ) SI_UNIT ( .MILLI., .METRE. ) );
#38 = VECTOR ( 'NONE', #111, 1000.000000000000000 ) ;
#39 = APPLICATION_PROTOCOL_DEFINITION ( 'draft international standard', 'automotive_design', 1998, #243 ) ;
#40 =( NAMED_UNIT ( * ) SI_UNIT ( $, .STERADIAN. ) SOLID_ANGLE_UNIT ( ) );
#41 = MECHANICAL_DESIGN_GEOMETRIC_PRESENTATION_REPRESENTATION (  '', ( #45 ), #31 ) ;
#42 = DIRECTION ( 'NONE',  ( 3.327098416510788398E-15, 0.3382550599108817835, 0.9410544694355825746 ) ) ;
#43 = EDGE_LOOP ( 'NONE', ( #177, #200, #257, #280 ) ) ;
#44 = ORIENTED_EDGE ( 'NONE', *, *, #162, .F. ) ;
#45 = STYLED_ITEM ( 'NONE', ( #233 ), #176 ) ;
#46 = ORIENTED_EDGE ( 'NONE', *, *, #106, .T. ) ;
#47 = CLOSED_SHELL ( 'NONE', ( #330, #78, #277, #30 ) ) ;
#48 = ORIENTED_EDGE ( 'NONE', *, *, #73, .F. ) ;
#49 = ORIENTED_EDGE ( 'NONE', *, *, #157, .F. ) ;
#50 = AXIS2_PLACEMENT_3D ( 'NONE', #70, #213, #316 ) ;
#51 = CARTESIAN_POINT ( 'NONE',  ( 0.000000000000000000, 0.000000000000000000, 0.000000000000000000 ) ) ;
#52 = DIRECTION ( 'NONE',  ( 3.491481338843133355E-15, -0.000000000000000000, 1.000000000000000000 ) ) ;
#53 = EDGE_CURVE ( 'NONE', #307, #285, #173, .T. ) ;
#54 = CARTESIAN_POINT ( 'NONE',  ( 7.796764640610539428E-14, -1.499999999999997113, 6.856417083418352654 ) ) ;
#55 = CYLINDRICAL_SURFACE ( 'NONE', #18, 1.499999999999995781 ) ;
#56 = CARTESIAN_POINT ( 'NONE',  ( 1.316288464743861212E-13, -4.616918432785521081E-15, 37.69999999999999574 ) ) ;
#57 = FACE_OUTER_BOUND ( 'NONE', #152, .T. ) ;
#58 = EDGE_CURVE ( 'NONE', #127, #97, #219, .T. ) ;
#59 = CARTESIAN_POINT ( 'NONE',  ( 0.000000000000000000, 0.000000000000000000, 0.000000000000000000 ) ) ;
#60 = CARTESIAN_POINT ( 'NONE',  ( -1.299999999999976952, 1.592040838891558109E-16, 6.300000000000004263 ) ) ;
#61 = CIRCLE ( 'NONE', #328, 1.300000000000000044 ) ;
#62 = MANIFOLD_SOLID_BREP ( 'Corps-Déplacer/Copier1[1]', #179 ) ;
#63 = CARTESIAN_POINT ( 'NONE',  ( 2.199633243471174014E-14, -7.715274834628325378E-16, 6.299999999999999822 ) ) ;
#64 = DIRECTION ( 'NONE',  ( -3.491481338843133355E-15, 1.224646799147353207E-16, -1.000000000000000000 ) ) ;
#65 =( LENGTH_UNIT ( ) NAMED_UNIT ( * ) SI_UNIT ( .MILLI., .METRE. ) );
#66 = LINE ( 'NONE', #115, #196 ) ;
#67 = CIRCLE ( 'NONE', #284, 1.299999999999999822 ) ;
#68 = ORIENTED_EDGE ( 'NONE', *, *, #92, .T. ) ;
#69 = ORIENTED_EDGE ( 'NONE', *, *, #273, .T. ) ;
#70 = CARTESIAN_POINT ( 'NONE',  ( 0.000000000000000000, 0.000000000000000000, 0.000000000000000000 ) ) ;
#71 = VERTEX_POINT ( 'NONE', #81 ) ;
#72 = CIRCLE ( 'NONE', #170, 1.499999999999996225 ) ;
#73 = EDGE_CURVE ( 'NONE', #285, #307, #67, .T. ) ;
#74 = ORIENTED_EDGE ( 'NONE', *, *, #58, .T. ) ;
#75 = ORIENTED_EDGE ( 'NONE', *, *, #114, .T. ) ;
#76 = CARTESIAN_POINT ( 'NONE',  ( 5.344789307371193879E-32, 1.300000000000000044, 1.530808498934190585E-17 ) ) ;
#77 = VECTOR ( 'NONE', #113, 1000.000000000000000 ) ;
#78 = ADVANCED_FACE ( 'NONE', ( #86 ), #34, .T. ) ;
#79 = FILL_AREA_STYLE_COLOUR ( '', #343 ) ;
#80 = COLOUR_RGB ( '',0.8980392156862745390, 0.9176470588235293713, 0.9294117647058823817 ) ;
#81 = CARTESIAN_POINT ( 'NONE',  ( 1.300000000000020695, 0.000000000000000000, 6.299999999999995381 ) ) ;
#82 = PLANE ( 'NONE',  #241 ) ;
#83 = DIRECTION ( 'NONE',  ( -3.491481338843133355E-15, 1.224646799147353207E-16, -1.000000000000000000 ) ) ;
#84 = PRODUCT_DEFINITION ( 'UNKNOWN', '', #153, #128 ) ;
#85 = VECTOR ( 'NONE', #224, 1000.000000000000000 ) ;
#86 = FACE_OUTER_BOUND ( 'NONE', #337, .T. ) ;
#87 = DIRECTION ( 'NONE',  ( -3.491481338843133355E-15, 1.224646799147353207E-16, -1.000000000000000000 ) ) ;
#88 = LINE ( 'NONE', #12, #190 ) ;
#89 = DIRECTION ( 'NONE',  ( 3.285674118869262210E-15, -0.3382550599108819500, 0.9410544694355824635 ) ) ;
#90 = CYLINDRICAL_SURFACE ( 'NONE', #164, 1.299999999999999600 ) ;
#91 = AXIS2_PLACEMENT_3D ( 'NONE', #56, #107, #269 ) ;
#92 = EDGE_CURVE ( 'NONE', #252, #308, #295, .T. ) ;
#93 = CARTESIAN_POINT ( 'NONE',  ( 1.316288464743861212E-13, -4.616918432785521081E-15, 37.69999999999999574 ) ) ;
#94 = EDGE_CURVE ( 'NONE', #124, #227, #154, .T. ) ;
#95 = CIRCLE ( 'NONE', #271, 1.299999999999998934 ) ;
#96 = ORIENTED_EDGE ( 'NONE', *, *, #94, .T. ) ;
#97 = VERTEX_POINT ( 'NONE', #193 ) ;
#98 = EDGE_LOOP ( 'NONE', ( #304, #313, #287, #149 ) ) ;
#99 = VECTOR ( 'NONE', #248, 1000.000000000000114 ) ;
#100 = ORIENTED_EDGE ( 'NONE', *, *, #162, .T. ) ;
#101 = PLANE ( 'NONE',  #167 ) ;
#102 = FILL_AREA_STYLE_COLOUR ( '', #80 ) ;
#103 = DIRECTION ( 'NONE',  ( 0.000000000000000000, -1.000000000000000000, 0.000000000000000000 ) ) ;
#104 = CONICAL_SURFACE ( 'NONE', #218, 1.299999999999999822, 0.3450620389298189039 ) ;
#105 = DIRECTION ( 'NONE',  ( -3.491481338843133355E-15, 1.224646799147353207E-16, -1.000000000000000000 ) ) ;
#106 = EDGE_CURVE ( 'NONE', #336, #23, #66, .T. ) ;
#107 = DIRECTION ( 'NONE',  ( -3.491481338843133355E-15, 1.224646799147359124E-16, -1.000000000000000000 ) ) ;
#108 = CARTESIAN_POINT ( 'NONE',  ( 2.199633243471174014E-14, 0.000000000000000000, 6.299999999999999822 ) ) ;
#109 = DIRECTION ( 'NONE',  ( 1.000000000000000000, 0.000000000000000000, -3.491481338843133355E-15 ) ) ;
#110 = AXIS2_PLACEMENT_3D ( 'NONE', #298, #272, #331 ) ;
#111 = DIRECTION ( 'NONE',  ( -3.491481338843133355E-15, 1.224646799147353207E-16, -1.000000000000000000 ) ) ;
#112 = CARTESIAN_POINT ( 'NONE',  ( 1.316288464743861212E-13, 1.499999999999991118, 37.69999999999999574 ) ) ;
#113 = DIRECTION ( 'NONE',  ( -2.468850131082272838E-15, 0.7071067811865453523, -0.7071067811865496822 ) ) ;
#114 = EDGE_CURVE ( 'NONE', #97, #71, #7, .T. ) ;
#115 = CARTESIAN_POINT ( 'NONE',  ( 1.836970198721018348E-16, -1.499999999999995781, -1.836970198721030920E-16 ) ) ;
#116 = SHAPE_DEFINITION_REPRESENTATION ( #319, #151 ) ;
#117 = CARTESIAN_POINT ( 'NONE',  ( -1.299999999999977618, 1.592040838891558602E-16, 6.300000000000004263 ) ) ;
#118 = ORIENTED_EDGE ( 'NONE', *, *, #339, .T. ) ;
#119 = VECTOR ( 'NONE', #89, 1000.000000000000000 ) ;
#120 = FACE_OUTER_BOUND ( 'NONE', #250, .T. ) ;
#121 = EDGE_LOOP ( 'NONE', ( #254, #69, #96, #143 ) ) ;
#122 = VERTEX_POINT ( 'NONE', #60 ) ;
#123 = ADVANCED_FACE ( 'NONE', ( #274 ), #104, .T. ) ;
#124 = VERTEX_POINT ( 'NONE', #270 ) ;
#125 = CIRCLE ( 'NONE', #225, 1.499999999999996225 ) ;
#126 = PRESENTATION_LAYER_ASSIGNMENT (  '', '', ( #311 ) ) ;
#127 = VERTEX_POINT ( 'NONE', #220 ) ;
#128 = PRODUCT_DEFINITION_CONTEXT ( 'detailed design', #211, 'design' ) ;
#129 =( LENGTH_UNIT ( ) NAMED_UNIT ( * ) SI_UNIT ( .MILLI., .METRE. ) );
#130 = DIRECTION ( 'NONE',  ( 1.000000000000000000, 0.000000000000000000, -3.491481338843133355E-15 ) ) ;
#131 = CIRCLE ( 'NONE', #26, 1.499999999999995781 ) ;
#132 = DIRECTION ( 'NONE',  ( 0.000000000000000000, 1.000000000000000000, 0.000000000000000000 ) ) ;
#133 = EDGE_CURVE ( 'NONE', #23, #227, #72, .T. ) ;
#134 = SURFACE_STYLE_USAGE ( .BOTH. , #210 ) ;
#135 = UNCERTAINTY_MEASURE_WITH_UNIT (LENGTH_MEASURE( 1.000000000000000082E-05 ), #65, 'distance_accuracy_value', 'NONE');
#136 = DIRECTION ( 'NONE',  ( 4.275831445896958607E-31, 1.000000000000000000, 1.224646799147353207E-16 ) ) ;
#137 = DIRECTION ( 'NONE',  ( 3.491481338843133355E-15, -1.224646799147353207E-16, 1.000000000000000000 ) ) ;
#138 = AXIS2_PLACEMENT_3D ( 'NONE', #36, #137, #239 ) ;
#139 = CARTESIAN_POINT ( 'NONE',  ( 1.300000000000021361, 0.000000000000000000, 6.299999999999995381 ) ) ;
#140 = AXIS2_PLACEMENT_3D ( 'NONE', #51, #341, #130 ) ;
#141 = FACE_OUTER_BOUND ( 'NONE', #27, .T. ) ;
#142 = SURFACE_SIDE_STYLE ('',( #305 ) ) ;
#143 = ORIENTED_EDGE ( 'NONE', *, *, #133, .F. ) ;
#144 = CARTESIAN_POINT ( 'NONE',  ( 1.316288464743861212E-13, -4.616918432785521081E-15, 37.69999999999999574 ) ) ;
#145 = ORIENTED_EDGE ( 'NONE', *, *, #293, .F. ) ;
#146 = CONICAL_SURFACE ( 'NONE', #91, 1.499999999999995781, 0.7853981633974450594 ) ;
#147 = EDGE_CURVE ( 'NONE', #307, #23, #329, .T. ) ;
#148 = ORIENTED_EDGE ( 'NONE', *, *, #147, .T. ) ;
#149 = ORIENTED_EDGE ( 'NONE', *, *, #299, .F. ) ;
#150 = UNCERTAINTY_MEASURE_WITH_UNIT (LENGTH_MEASURE( 1.000000000000000082E-05 ), #129, 'distance_accuracy_value', 'NONE');
#151 = ADVANCED_BREP_SHAPE_REPRESENTATION ( '41573', ( #62, #176, #333 ), #171 ) ;
#152 = EDGE_LOOP ( 'NONE', ( #20, #228 ) ) ;
#153 = PRODUCT_DEFINITION_FORMATION_WITH_SPECIFIED_SOURCE ( 'ANY', '', #267, .NOT_KNOWN. ) ;
#154 = LINE ( 'NONE', #166, #38 ) ;
#155 = DIRECTION ( 'NONE',  ( 3.491481338843133355E-15, -0.000000000000000000, 1.000000000000000000 ) ) ;
#156 = DIRECTION ( 'NONE',  ( -3.491481338843133355E-15, 0.000000000000000000, -1.000000000000000000 ) ) ;
#157 = EDGE_CURVE ( 'NONE', #285, #227, #88, .T. ) ;
#158 = SURFACE_STYLE_FILL_AREA ( #1 ) ;
#159 = DIRECTION ( 'NONE',  ( 3.491481338843133355E-15, -0.000000000000000000, 1.000000000000000000 ) ) ;
#160 = CARTESIAN_POINT ( 'NONE',  ( 2.296769236639609157E-14, -1.300000000000000488, 6.299999999999999822 ) ) ;
#161 = AXIS2_PLACEMENT_3D ( 'NONE', #3, #182, #320 ) ;
#162 = EDGE_CURVE ( 'NONE', #71, #122, #95, .T. ) ;
#163 = FACE_OUTER_BOUND ( 'NONE', #121, .T. ) ;
#164 = AXIS2_PLACEMENT_3D ( 'NONE', #33, #4, #318 ) ;
#165 = MECHANICAL_DESIGN_GEOMETRIC_PRESENTATION_REPRESENTATION (  '', ( #311 ), #197 ) ;
#166 = CARTESIAN_POINT ( 'NONE',  ( 6.413747168845419518E-31, 1.499999999999995781, 1.836970198721024511E-16 ) ) ;
#167 = AXIS2_PLACEMENT_3D ( 'NONE', #76, #155, #289 ) ;
#168 = ADVANCED_FACE ( 'NONE', ( #141 ), #303, .T. ) ;
#169 = DIRECTION ( 'NONE',  ( 3.491481338843133355E-15, -1.224646799147353207E-16, 1.000000000000000000 ) ) ;
#170 = AXIS2_PLACEMENT_3D ( 'NONE', #222, #326, #245 ) ;
#171 =( GEOMETRIC_REPRESENTATION_CONTEXT ( 3 ) GLOBAL_UNCERTAINTY_ASSIGNED_CONTEXT ( ( #256 ) ) GLOBAL_UNIT_ASSIGNED_CONTEXT ( ( #37, #325, #215 ) ) REPRESENTATION_CONTEXT ( 'NONE', 'WORKASPACE' ) );
#172 = ORIENTED_EDGE ( 'NONE', *, *, #175, .T. ) ;
#173 = CIRCLE ( 'NONE', #290, 1.299999999999999822 ) ;
#174 = EDGE_LOOP ( 'NONE', ( #100, #340 ) ) ;
#175 = EDGE_CURVE ( 'NONE', #124, #336, #310, .T. ) ;
#176 = MANIFOLD_SOLID_BREP ( 'Corps-Déplacer/Copier1[2]', #47 ) ;
#177 = ORIENTED_EDGE ( 'NONE', *, *, #229, .F. ) ;
#178 = ORIENTED_EDGE ( 'NONE', *, *, #201, .T. ) ;
#179 = CLOSED_SHELL ( 'NONE', ( #261, #123, #214, #10, #253, #309, #168, #180 ) ) ;
#180 = ADVANCED_FACE ( 'NONE', ( #314 ), #251, .T. ) ;
#181 = ORIENTED_EDGE ( 'NONE', *, *, #94, .F. ) ;
#182 = DIRECTION ( 'NONE',  ( -3.491481338843133355E-15, 1.224646799147353207E-16, -1.000000000000000000 ) ) ;
#183 = AXIS2_PLACEMENT_3D ( 'NONE', #2, #156, #327 ) ;
#184 = LINE ( 'NONE', #291, #99 ) ;
#185 = DIRECTION ( 'NONE',  ( -3.552713678800500929E-14, -1.000000000000000000, 0.000000000000000000 ) ) ;
#186 =( NAMED_UNIT ( * ) SI_UNIT ( $, .STERADIAN. ) SOLID_ANGLE_UNIT ( ) );
#187 = DIRECTION ( 'NONE',  ( 3.491481338843133355E-15, -0.000000000000000000, 1.000000000000000000 ) ) ;
#188 = CARTESIAN_POINT ( 'NONE',  ( 1.316288464743861212E-13, -4.616918432785521081E-15, 37.69999999999999574 ) ) ;
#189 = CARTESIAN_POINT ( 'NONE',  ( 1.326762908760390423E-13, -4.653657836759941941E-15, 38.00000000000000000 ) ) ;
#190 = VECTOR ( 'NONE', #42, 999.9999999999998863 ) ;
#191 = EDGE_CURVE ( 'NONE', #122, #71, #264, .T. ) ;
#192 = CARTESIAN_POINT ( 'NONE',  ( 2.199633243471174014E-14, -1.300000000000000488, 6.299999999999999822 ) ) ;
#193 = CARTESIAN_POINT ( 'NONE',  ( 1.300000000000000044, 0.000000000000000000, -4.538925740496073362E-15 ) ) ;
#194 = DIRECTION ( 'NONE',  ( 1.000000000000000000, 0.000000000000000000, 0.000000000000000000 ) ) ;
#195 = FILL_AREA_STYLE ('',( #79 ) ) ;
#196 = VECTOR ( 'NONE', #64, 1000.000000000000000 ) ;
#197 =( GEOMETRIC_REPRESENTATION_CONTEXT ( 3 ) GLOBAL_UNCERTAINTY_ASSIGNED_CONTEXT ( ( #135 ) ) GLOBAL_UNIT_ASSIGNED_CONTEXT ( ( #65, #249, #40 ) ) REPRESENTATION_CONTEXT ( 'NONE', 'WORKASPACE' ) );
#198 = ORIENTED_EDGE ( 'NONE', *, *, #114, .F. ) ;
#199 = DIRECTION ( 'NONE',  ( -3.491481338843133355E-15, 1.224646799147359124E-16, -1.000000000000000000 ) ) ;
#200 = ORIENTED_EDGE ( 'NONE', *, *, #92, .F. ) ;
#201 = EDGE_CURVE ( 'NONE', #308, #252, #212, .T. ) ;
#202 = CYLINDRICAL_SURFACE ( 'NONE', #50, 1.499999999999995781 ) ;
#203 = ORIENTED_EDGE ( 'NONE', *, *, #237, .T. ) ;
#204 = ORIENTED_EDGE ( 'NONE', *, *, #339, .F. ) ;
#205 = AXIS2_PLACEMENT_3D ( 'NONE', #93, #5, #9 ) ;
#206 = COLOUR_RGB ( '',0.8980392156862745390, 0.9176470588235293713, 0.9294117647058823817 ) ;
#207 = ORIENTED_EDGE ( 'NONE', *, *, #147, .F. ) ;
#208 = CARTESIAN_POINT ( 'NONE',  ( 2.199633243471174014E-14, -7.715274834628325378E-16, 6.299999999999999822 ) ) ;
#209 =( NAMED_UNIT ( * ) PLANE_ANGLE_UNIT ( ) SI_UNIT ( $, .RADIAN. ) );
#210 = SURFACE_SIDE_STYLE ('',( #158 ) ) ;
#211 = APPLICATION_CONTEXT ( 'automotive_design' ) ;
#212 = CIRCLE ( 'NONE', #11, 1.199999999999995959 ) ;
#213 = DIRECTION ( 'NONE',  ( -3.491481338843133355E-15, 1.224646799147353207E-16, -1.000000000000000000 ) ) ;
#214 = ADVANCED_FACE ( 'NONE', ( #120 ), #202, .T. ) ;
#215 =( NAMED_UNIT ( * ) SI_UNIT ( $, .STERADIAN. ) SOLID_ANGLE_UNIT ( ) );
#216 = CARTESIAN_POINT ( 'NONE',  ( 2.393905229808044300E-14, -8.396689234827516661E-16, 6.856417083418352654 ) ) ;
#217 = PLANE ( 'NONE',  #183 ) ;
#218 = AXIS2_PLACEMENT_3D ( 'NONE', #63, #169, #324 ) ;
#219 = CIRCLE ( 'NONE', #140, 1.300000000000000044 ) ;
#220 = CARTESIAN_POINT ( 'NONE',  ( -1.300000000000000044, 1.592040838891572407E-16, 4.538925740496073362E-15 ) ) ;
#221 = FACE_OUTER_BOUND ( 'NONE', #98, .T. ) ;
#222 = CARTESIAN_POINT ( 'NONE',  ( 2.393905229808044300E-14, -8.396689234827516661E-16, 6.856417083418352654 ) ) ;
#223 = APPLICATION_PROTOCOL_DEFINITION ( 'draft international standard', 'automotive_design', 1998, #211 ) ;
#224 = DIRECTION ( 'NONE',  ( 3.491481338843133355E-15, -0.000000000000000000, 1.000000000000000000 ) ) ;
#225 = AXIS2_PLACEMENT_3D ( 'NONE', #216, #83, #35 ) ;
#226 = ORIENTED_EDGE ( 'NONE', *, *, #133, .T. ) ;
#227 = VERTEX_POINT ( 'NONE', #283 ) ;
#228 = ORIENTED_EDGE ( 'NONE', *, *, #73, .T. ) ;
#229 = EDGE_CURVE ( 'NONE', #308, #336, #184, .T. ) ;
#230 = ORIENTED_EDGE ( 'NONE', *, *, #191, .F. ) ;
#231 =( GEOMETRIC_REPRESENTATION_CONTEXT ( 3 ) GLOBAL_UNCERTAINTY_ASSIGNED_CONTEXT ( ( #282 ) ) GLOBAL_UNIT_ASSIGNED_CONTEXT ( ( #28, #234, #186 ) ) REPRESENTATION_CONTEXT ( 'NONE', 'WORKASPACE' ) );
#232 = ORIENTED_EDGE ( 'NONE', *, *, #58, .F. ) ;
#233 = PRESENTATION_STYLE_ASSIGNMENT (( #22 ) ) ;
#234 =( NAMED_UNIT ( * ) PLANE_ANGLE_UNIT ( ) SI_UNIT ( $, .RADIAN. ) );
#235 = AXIS2_PLACEMENT_3D ( 'NONE', #108, #187, #268 ) ;
#236 = FILL_AREA_STYLE ('',( #242 ) ) ;
#237 = EDGE_CURVE ( 'NONE', #127, #122, #13, .T. ) ;
#238 = FACE_OUTER_BOUND ( 'NONE', #16, .T. ) ;
#239 = DIRECTION ( 'NONE',  ( 0.000000000000000000, -1.000000000000000000, 0.000000000000000000 ) ) ;
#240 = DIRECTION ( 'NONE',  ( -3.491481338843133355E-15, 1.224646799147359124E-16, -1.000000000000000000 ) ) ;
#241 = AXIS2_PLACEMENT_3D ( 'NONE', #189, #321, #6 ) ;
#242 = FILL_AREA_STYLE_COLOUR ( '', #206 ) ;
#243 = APPLICATION_CONTEXT ( 'automotive_design' ) ;
#244 = DIRECTION ( 'NONE',  ( 1.000000000000000000, 0.000000000000000000, -3.336006684570785665E-15 ) ) ;
#245 = DIRECTION ( 'NONE',  ( 0.000000000000000000, 1.000000000000000000, 0.000000000000000000 ) ) ;
#246 = DIRECTION ( 'NONE',  ( 3.491481338843133355E-15, -0.000000000000000000, 1.000000000000000000 ) ) ;
#247 = SURFACE_STYLE_USAGE ( .BOTH. , #142 ) ;
#248 = DIRECTION ( 'NONE',  ( -2.382254525458724175E-15, -0.7071067811865451302, -0.7071067811865499042 ) ) ;
#249 =( NAMED_UNIT ( * ) PLANE_ANGLE_UNIT ( ) SI_UNIT ( $, .RADIAN. ) );
#250 = EDGE_LOOP ( 'NONE', ( #172, #46, #145, #181 ) ) ;
#251 = CONICAL_SURFACE ( 'NONE', #301, 1.499999999999995781, 0.7853981633974450594 ) ;
#252 = VERTEX_POINT ( 'NONE', #296 ) ;
#253 = ADVANCED_FACE ( 'NONE', ( #300 ), #82, .T. ) ;
#254 = ORIENTED_EDGE ( 'NONE', *, *, #106, .F. ) ;
#255 = MECHANICAL_DESIGN_GEOMETRIC_PRESENTATION_REPRESENTATION (  '', ( #317 ), #231 ) ;
#256 = UNCERTAINTY_MEASURE_WITH_UNIT (LENGTH_MEASURE( 1.000000000000000082E-05 ), #37, 'distance_accuracy_value', 'NONE');
#257 = ORIENTED_EDGE ( 'NONE', *, *, #299, .T. ) ;
#258 = PRESENTATION_LAYER_ASSIGNMENT (  '', '', ( #45 ) ) ;
#259 = EDGE_LOOP ( 'NONE', ( #204, #232 ) ) ;
#260 = DIRECTION ( 'NONE',  ( 3.491481338843133355E-15, -1.224646799147353207E-16, 1.000000000000000000 ) ) ;
#261 = ADVANCED_FACE ( 'NONE', ( #221 ), #146, .T. ) ;
#262 = PRESENTATION_STYLE_ASSIGNMENT (( #134 ) ) ;
#263 = DIRECTION ( 'NONE',  ( -3.491481338843133355E-15, 1.224646799147353207E-16, -1.000000000000000000 ) ) ;
#264 = CIRCLE ( 'NONE', #332, 1.299999999999998934 ) ;
#265 = CARTESIAN_POINT ( 'NONE',  ( 2.199633243471174014E-14, -7.715274834628325378E-16, 6.299999999999999822 ) ) ;
#266 = FACE_OUTER_BOUND ( 'NONE', #174, .T. ) ;
#267 = PRODUCT ( '41573', '41573', '', ( #17 ) ) ;
#268 = DIRECTION ( 'NONE',  ( 1.000000000000000000, 0.000000000000000000, -3.336006684570784088E-15 ) ) ;
#269 = DIRECTION ( 'NONE',  ( 0.000000000000000000, 1.000000000000000000, 0.000000000000000000 ) ) ;
#270 = CARTESIAN_POINT ( 'NONE',  ( 7.778394938623329156E-14, 1.499999999999991118, 37.69999999999999574 ) ) ;
#271 = AXIS2_PLACEMENT_3D ( 'NONE', #302, #276, #244 ) ;
#272 = DIRECTION ( 'NONE',  ( 3.491481338843133355E-15, -1.224646799147353207E-16, 1.000000000000000000 ) ) ;
#273 = EDGE_CURVE ( 'NONE', #336, #124, #131, .T. ) ;
#274 = FACE_OUTER_BOUND ( 'NONE', #24, .T. ) ;
#275 = CARTESIAN_POINT ( 'NONE',  ( 0.000000000000000000, 0.000000000000000000, 0.000000000000000000 ) ) ;
#276 = DIRECTION ( 'NONE',  ( 3.491481338843133355E-15, -0.000000000000000000, 1.000000000000000000 ) ) ;
#277 = ADVANCED_FACE ( 'NONE', ( #266 ), #217, .F. ) ;
#278 = PRESENTATION_STYLE_ASSIGNMENT (( #247 ) ) ;
#279 = SURFACE_STYLE_FILL_AREA ( #195 ) ;
#280 = ORIENTED_EDGE ( 'NONE', *, *, #273, .F. ) ;
#281 = ORIENTED_EDGE ( 'NONE', *, *, #293, .T. ) ;
#282 = UNCERTAINTY_MEASURE_WITH_UNIT (LENGTH_MEASURE( 1.000000000000000082E-05 ), #28, 'distance_accuracy_value', 'NONE');
#283 = CARTESIAN_POINT ( 'NONE',  ( 2.393905229808044300E-14, 1.499999999999995337, 6.856417083418352654 ) ) ;
#284 = AXIS2_PLACEMENT_3D ( 'NONE', #265, #263, #132 ) ;
#285 = VERTEX_POINT ( 'NONE', #8 ) ;
#286 = ORIENTED_EDGE ( 'NONE', *, *, #157, .T. ) ;
#287 = ORIENTED_EDGE ( 'NONE', *, *, #175, .F. ) ;
#288 = DIRECTION ( 'NONE',  ( 0.000000000000000000, 1.000000000000000000, 0.000000000000000000 ) ) ;
#289 = DIRECTION ( 'NONE',  ( 1.000000000000000000, 0.000000000000000000, -3.491481338843133355E-15 ) ) ;
#290 = AXIS2_PLACEMENT_3D ( 'NONE', #208, #105, #32 ) ;
#291 = CARTESIAN_POINT ( 'NONE',  ( 1.318125434942582113E-13, -1.500000000000000222, 37.69999999999999574 ) ) ;
#292 = CARTESIAN_POINT ( 'NONE',  ( 1.323178959930974906E-13, -1.200000000000000622, 38.00000000000000000 ) ) ;
#293 = EDGE_CURVE ( 'NONE', #227, #23, #125, .T. ) ;
#294 = FACE_OUTER_BOUND ( 'NONE', #259, .T. ) ;
#295 = CIRCLE ( 'NONE', #138, 1.199999999999995959 ) ;
#296 = CARTESIAN_POINT ( 'NONE',  ( 1.321525686752125943E-13, 1.199999999999991518, 38.00000000000000000 ) ) ;
#297 = CARTESIAN_POINT ( 'NONE',  ( 7.796764640610530593E-14, -1.500000000000000222, 37.69999999999999574 ) ) ;
#298 = CARTESIAN_POINT ( 'NONE',  ( 2.199633243471174014E-14, -7.715274834628325378E-16, 6.299999999999999822 ) ) ;
#299 = EDGE_CURVE ( 'NONE', #252, #124, #323, .T. ) ;
#300 = FACE_OUTER_BOUND ( 'NONE', #312, .T. ) ;
#301 = AXIS2_PLACEMENT_3D ( 'NONE', #144, #199, #288 ) ;
#302 = CARTESIAN_POINT ( 'NONE',  ( 2.199633243471174014E-14, 0.000000000000000000, 6.299999999999999822 ) ) ;
#303 = CONICAL_SURFACE ( 'NONE', #110, 1.299999999999999822, 0.3450620389298189039 ) ;
#304 = ORIENTED_EDGE ( 'NONE', *, *, #201, .F. ) ;
#305 = SURFACE_STYLE_FILL_AREA ( #236 ) ;
#306 = CARTESIAN_POINT ( 'NONE',  ( 1.326762908760390423E-13, -4.653657836759941941E-15, 38.00000000000000000 ) ) ;
#307 = VERTEX_POINT ( 'NONE', #160 ) ;
#308 = VERTEX_POINT ( 'NONE', #292 ) ;
#309 = ADVANCED_FACE ( 'NONE', ( #163 ), #55, .T. ) ;
#310 = CIRCLE ( 'NONE', #205, 1.499999999999995781 ) ;
#311 = STYLED_ITEM ( 'NONE', ( #278 ), #151 ) ;
#312 = EDGE_LOOP ( 'NONE', ( #68, #178 ) ) ;
#313 = ORIENTED_EDGE ( 'NONE', *, *, #229, .T. ) ;
#314 = FACE_OUTER_BOUND ( 'NONE', #43, .T. ) ;
#315 = VECTOR ( 'NONE', #246, 1000.000000000000000 ) ;
#316 = DIRECTION ( 'NONE',  ( 4.275831445896958607E-31, 1.000000000000000000, 1.224646799147353207E-16 ) ) ;
#317 = STYLED_ITEM ( 'NONE', ( #262 ), #62 ) ;
#318 = DIRECTION ( 'NONE',  ( 1.000000000000000000, 0.000000000000000000, -3.336006684570784088E-15 ) ) ;
#319 = PRODUCT_DEFINITION_SHAPE ( 'NONE', 'NONE',  #84 ) ;
#320 = DIRECTION ( 'NONE',  ( 4.275831445896958607E-31, 1.000000000000000000, 1.224646799147353207E-16 ) ) ;
#321 = DIRECTION ( 'NONE',  ( 3.491481338843133355E-15, -1.224646799147353207E-16, 1.000000000000000000 ) ) ;
#322 = PLANE ( 'NONE',  #161 ) ;
#323 = LINE ( 'NONE', #112, #77 ) ;
#324 = DIRECTION ( 'NONE',  ( 0.000000000000000000, -1.000000000000000000, 0.000000000000000000 ) ) ;
#325 =( NAMED_UNIT ( * ) PLANE_ANGLE_UNIT ( ) SI_UNIT ( $, .RADIAN. ) );
#326 = DIRECTION ( 'NONE',  ( -3.491481338843133355E-15, 1.224646799147353207E-16, -1.000000000000000000 ) ) ;
#327 = DIRECTION ( 'NONE',  ( -1.000000000000000000, 0.000000000000000000, 3.491481338843133355E-15 ) ) ;
#328 = AXIS2_PLACEMENT_3D ( 'NONE', #29, #159, #109 ) ;
#329 = LINE ( 'NONE', #192, #119 ) ;
#330 = ADVANCED_FACE ( 'NONE', ( #238 ), #90, .T. ) ;
#331 = DIRECTION ( 'NONE',  ( 0.000000000000000000, -1.000000000000000000, 0.000000000000000000 ) ) ;
#332 = AXIS2_PLACEMENT_3D ( 'NONE', #334, #52, #19 ) ;
#333 = AXIS2_PLACEMENT_3D ( 'NONE', #275, #14, #194 ) ;
#334 = CARTESIAN_POINT ( 'NONE',  ( 2.199633243471174014E-14, 0.000000000000000000, 6.299999999999999822 ) ) ;
#335 = ORIENTED_EDGE ( 'NONE', *, *, #237, .F. ) ;
#336 = VERTEX_POINT ( 'NONE', #297 ) ;
#337 = EDGE_LOOP ( 'NONE', ( #335, #74, #75, #230 ) ) ;
#338 = ORIENTED_EDGE ( 'NONE', *, *, #53, .F. ) ;
#339 = EDGE_CURVE ( 'NONE', #97, #127, #61, .T. ) ;
#340 = ORIENTED_EDGE ( 'NONE', *, *, #191, .T. ) ;
#341 = DIRECTION ( 'NONE',  ( 3.491481338843133355E-15, -0.000000000000000000, 1.000000000000000000 ) ) ;
#342 =( NAMED_UNIT ( * ) SI_UNIT ( $, .STERADIAN. ) SOLID_ANGLE_UNIT ( ) );
#343 = COLOUR_RGB ( '',0.8980392156862745390, 0.9176470588235293713, 0.9294117647058823817 ) ;
ENDSEC;
END-ISO-10303-21;
