ISO-10303-21;
HEADER;
FILE_DESCRIPTION (( 'STEP AP214' ),
    '1' );
FILE_NAME ('41572.step',
    '2024-04-04T09:32:55',
    ( '' ),
    ( '' ),
    'SwSTEP 2.0',
    'SolidWorks 2022',
    '' );
FILE_SCHEMA (( 'AUTOMOTIVE_DESIGN' ));
ENDSEC;

DATA;
#1 = FACE_OUTER_BOUND ( 'NONE', #239, .T. ) ;
#2 = STYLED_ITEM ( 'NONE', ( #103 ), #166 ) ;
#3 = DIRECTION ( 'NONE',  ( 0.000000000000000000, -1.000000000000000000, 0.000000000000000000 ) ) ;
#4 = AXIS2_PLACEMENT_3D ( 'NONE', #107, #209, #54 ) ;
#5 = EDGE_CURVE ( 'NONE', #307, #283, #240, .T. ) ;
#6 = APPLICATION_PROTOCOL_DEFINITION ( 'draft international standard', 'automotive_design', 1998, #266 ) ;
#7 = CARTESIAN_POINT ( 'NONE',  ( 1.836970198721018348E-16, -1.499999999999995781, -1.836970198721030920E-16 ) ) ;
#8 = FACE_OUTER_BOUND ( 'NONE', #84, .T. ) ;
#9 = FACE_OUTER_BOUND ( 'NONE', #200, .T. ) ;
#10 = ADVANCED_FACE ( 'NONE', ( #338 ), #308, .T. ) ;
#11 = CARTESIAN_POINT ( 'NONE',  ( 0.000000000000000000, 0.000000000000000000, 0.000000000000000000 ) ) ;
#12 = ORIENTED_EDGE ( 'NONE', *, *, #39, .F. ) ;
#13 = FACE_OUTER_BOUND ( 'NONE', #79, .T. ) ;
#14 = CARTESIAN_POINT ( 'NONE',  ( -1.299999999999980060, 1.592040838891558602E-16, 5.500000000000004441 ) ) ;
#15 = VERTEX_POINT ( 'NONE', #186 ) ;
#16 = CARTESIAN_POINT ( 'NONE',  ( 1.920314736363723345E-14, 0.000000000000000000, 5.500000000000000000 ) ) ;
#17 = EDGE_CURVE ( 'NONE', #15, #224, #191, .T. ) ;
#18 = ORIENTED_EDGE ( 'NONE', *, *, #299, .T. ) ;
#19 = DIRECTION ( 'NONE',  ( 1.000000000000000000, 0.000000000000000000, -3.491481338843133355E-15 ) ) ;
#20 = CARTESIAN_POINT ( 'NONE',  ( 7.657105387056811570E-14, -1.499999999999996669, 6.056417083418351943 ) ) ;
#21 = ORIENTED_EDGE ( 'NONE', *, *, #56, .F. ) ;
#22 = LINE ( 'NONE', #27, #160 ) ;
#23 = ORIENTED_EDGE ( 'NONE', *, *, #115, .T. ) ;
#24 = DIRECTION ( 'NONE',  ( 0.000000000000000000, 0.000000000000000000, 1.000000000000000000 ) ) ;
#25 = DIRECTION ( 'NONE',  ( 3.491481338843133355E-15, -1.224646799147353207E-16, 1.000000000000000000 ) ) ;
#26 = CIRCLE ( 'NONE', #220, 1.499999999999996003 ) ;
#27 = CARTESIAN_POINT ( 'NONE',  ( 1.300000000000018696, 0.000000000000000000, 5.499999999999995559 ) ) ;
#28 = CARTESIAN_POINT ( 'NONE',  ( 1.316288464743860959E-13, -4.616918432785520292E-15, 37.69999999999998863 ) ) ;
#29 = ADVANCED_FACE ( 'NONE', ( #290 ), #195, .T. ) ;
#30 = PRESENTATION_STYLE_ASSIGNMENT (( #248 ) ) ;
#31 = AXIS2_PLACEMENT_3D ( 'NONE', #28, #140, #219 ) ;
#32 = CARTESIAN_POINT ( 'NONE',  ( 0.000000000000000000, 0.000000000000000000, 0.000000000000000000 ) ) ;
#33 = DIRECTION ( 'NONE',  ( 3.491481338843133355E-15, -1.224646799147353207E-16, 1.000000000000000000 ) ) ;
#34 = DIRECTION ( 'NONE',  ( 3.491481338843133355E-15, -0.000000000000000000, 1.000000000000000000 ) ) ;
#35 = DIRECTION ( 'NONE',  ( 3.327098416510788398E-15, 0.3382550599108816169, 0.9410544694355826856 ) ) ;
#36 = DIRECTION ( 'NONE',  ( 0.000000000000000000, 1.000000000000000000, 0.000000000000000000 ) ) ;
#37 = VERTEX_POINT ( 'NONE', #268 ) ;
#38 = VECTOR ( 'NONE', #90, 1000.000000000000000 ) ;
#39 = EDGE_CURVE ( 'NONE', #234, #119, #22, .T. ) ;
#40 = DIRECTION ( 'NONE',  ( 1.000000000000000000, 0.000000000000000000, -3.336006684570784482E-15 ) ) ;
#41 = ORIENTED_EDGE ( 'NONE', *, *, #213, .T. ) ;
#42 = CARTESIAN_POINT ( 'NONE',  ( 0.000000000000000000, 0.000000000000000000, 0.000000000000000000 ) ) ;
#43 = COLOUR_RGB ( '',0.8980392156862745390, 0.9176470588235293713, 0.9294117647058823817 ) ;
#44 = ORIENTED_EDGE ( 'NONE', *, *, #227, .F. ) ;
#45 = DIRECTION ( 'NONE',  ( -3.491481338843133355E-15, 1.224646799147353207E-16, -1.000000000000000000 ) ) ;
#46 = ORIENTED_EDGE ( 'NONE', *, *, #174, .F. ) ;
#47 = AXIS2_PLACEMENT_3D ( 'NONE', #304, #302, #148 ) ;
#48 = PRODUCT_RELATED_PRODUCT_CATEGORY ( 'part', '', ( #212 ) ) ;
#49 = CIRCLE ( 'NONE', #31, 1.499999999999995781 ) ;
#50 = DIRECTION ( 'NONE',  ( -3.491481338843133355E-15, 1.224646799147353207E-16, -1.000000000000000000 ) ) ;
#51 = PRODUCT_DEFINITION_CONTEXT ( 'detailed design', #266, 'design' ) ;
#52 = DIRECTION ( 'NONE',  ( -3.491481338843133355E-15, 1.224646799147353207E-16, -1.000000000000000000 ) ) ;
#53 = DIRECTION ( 'NONE',  ( 1.000000000000000000, 0.000000000000000000, 0.000000000000000000 ) ) ;
#54 = DIRECTION ( 'NONE',  ( 0.000000000000000000, 1.000000000000000000, 0.000000000000000000 ) ) ;
#55 = COLOUR_RGB ( '',0.8980392156862745390, 0.9176470588235293713, 0.9294117647058823817 ) ;
#56 = EDGE_CURVE ( 'NONE', #229, #343, #87, .T. ) ;
#57 = ORIENTED_EDGE ( 'NONE', *, *, #155, .F. ) ;
#58 = AXIS2_PLACEMENT_3D ( 'NONE', #259, #122, #253 ) ;
#59 = ADVANCED_FACE ( 'NONE', ( #184 ), #316, .T. ) ;
#60 =( NAMED_UNIT ( * ) SI_UNIT ( $, .STERADIAN. ) SOLID_ANGLE_UNIT ( ) );
#61 = DIRECTION ( 'NONE',  ( 4.275831445896958607E-31, 1.000000000000000000, 1.224646799147353207E-16 ) ) ;
#62 = SURFACE_SIDE_STYLE ('',( #187 ) ) ;
#63 =( LENGTH_UNIT ( ) NAMED_UNIT ( * ) SI_UNIT ( .MILLI., .METRE. ) );
#64 = DIRECTION ( 'NONE',  ( -1.000000000000000000, 0.000000000000000000, 3.491481338843133355E-15 ) ) ;
#65 =( GEOMETRIC_REPRESENTATION_CONTEXT ( 3 ) GLOBAL_UNCERTAINTY_ASSIGNED_CONTEXT ( ( #112 ) ) GLOBAL_UNIT_ASSIGNED_CONTEXT ( ( #131, #78, #208 ) ) REPRESENTATION_CONTEXT ( 'NONE', 'WORKASPACE' ) );
#66 = DIRECTION ( 'NONE',  ( 0.000000000000000000, -1.000000000000000000, 0.000000000000000000 ) ) ;
#67 = FACE_OUTER_BOUND ( 'NONE', #254, .T. ) ;
#68 = ADVANCED_FACE ( 'NONE', ( #1 ), #108, .T. ) ;
#69 = CARTESIAN_POINT ( 'NONE',  ( 2.017450729532158173E-14, -1.300000000000000488, 5.500000000000000000 ) ) ;
#70 = AXIS2_PLACEMENT_3D ( 'NONE', #223, #257, #199 ) ;
#71 = DIRECTION ( 'NONE',  ( 0.000000000000000000, 1.000000000000000000, 0.000000000000000000 ) ) ;
#72 = AXIS2_PLACEMENT_3D ( 'NONE', #11, #332, #19 ) ;
#73 = EDGE_LOOP ( 'NONE', ( #44, #260, #149, #182 ) ) ;
#74 = APPLICATION_CONTEXT ( 'automotive_design' ) ;
#75 = CARTESIAN_POINT ( 'NONE',  ( 1.920314736363723345E-14, 1.299999999999999378, 5.500000000000000000 ) ) ;
#76 = CIRCLE ( 'NONE', #144, 1.499999999999995781 ) ;
#77 =( NAMED_UNIT ( * ) PLANE_ANGLE_UNIT ( ) SI_UNIT ( $, .RADIAN. ) );
#78 =( NAMED_UNIT ( * ) PLANE_ANGLE_UNIT ( ) SI_UNIT ( $, .RADIAN. ) );
#79 = EDGE_LOOP ( 'NONE', ( #340, #128 ) ) ;
#80 = ADVANCED_FACE ( 'NONE', ( #156 ), #263, .F. ) ;
#81 = CARTESIAN_POINT ( 'NONE',  ( 0.000000000000000000, 0.000000000000000000, 0.000000000000000000 ) ) ;
#82 = VECTOR ( 'NONE', #102, 1000.000000000000000 ) ;
#83 = AXIS2_PLACEMENT_3D ( 'NONE', #342, #129, #61 ) ;
#84 = EDGE_LOOP ( 'NONE', ( #231, #146, #169, #12 ) ) ;
#85 = ADVANCED_FACE ( 'NONE', ( #9 ), #147, .T. ) ;
#86 = CARTESIAN_POINT ( 'NONE',  ( 1.920314736363723345E-14, -6.735557395310442023E-16, 5.500000000000000000 ) ) ;
#87 = CIRCLE ( 'NONE', #201, 1.199999999999989075 ) ;
#88 = CYLINDRICAL_SURFACE ( 'NONE', #116, 1.299999999999999600 ) ;
#89 = VECTOR ( 'NONE', #96, 999.9999999999998863 ) ;
#90 = DIRECTION ( 'NONE',  ( -2.468850131082272838E-15, 0.7071067811865453523, -0.7071067811865496822 ) ) ;
#91 = EDGE_CURVE ( 'NONE', #307, #258, #49, .T. ) ;
#92 = ORIENTED_EDGE ( 'NONE', *, *, #17, .T. ) ;
#93 = AXIS2_PLACEMENT_3D ( 'NONE', #16, #281, #40 ) ;
#94 = LINE ( 'NONE', #202, #152 ) ;
#95 = ORIENTED_EDGE ( 'NONE', *, *, #278, .F. ) ;
#96 = DIRECTION ( 'NONE',  ( 3.285674118869262605E-15, -0.3382550599108817835, 0.9410544694355825746 ) ) ;
#97 = CARTESIAN_POINT ( 'NONE',  ( 1.920314736363723345E-14, -6.735557395310442023E-16, 5.500000000000000000 ) ) ;
#98 = ORIENTED_EDGE ( 'NONE', *, *, #210, .T. ) ;
#99 = CARTESIAN_POINT ( 'NONE',  ( 1.321525686752125943E-13, 1.199999999999984412, 38.00000000000000000 ) ) ;
#100 = CIRCLE ( 'NONE', #93, 1.299999999999999378 ) ;
#101 = ORIENTED_EDGE ( 'NONE', *, *, #56, .T. ) ;
#102 = DIRECTION ( 'NONE',  ( -3.491481338843133355E-15, 1.224646799147353207E-16, -1.000000000000000000 ) ) ;
#103 = PRESENTATION_STYLE_ASSIGNMENT (( #237 ) ) ;
#104 = ORIENTED_EDGE ( 'NONE', *, *, #227, .T. ) ;
#105 = MECHANICAL_DESIGN_GEOMETRIC_PRESENTATION_REPRESENTATION (  '', ( #2 ), #317 ) ;
#106 = CARTESIAN_POINT ( 'NONE',  ( 1.920314736363723345E-14, 0.000000000000000000, 5.500000000000000000 ) ) ;
#107 = CARTESIAN_POINT ( 'NONE',  ( 1.316288464743860959E-13, -4.616918432785520292E-15, 37.69999999999998863 ) ) ;
#108 = PLANE ( 'NONE',  #288 ) ;
#109 = MANIFOLD_SOLID_BREP ( 'Corps-Déplacer/Copier1[1]', #189 ) ;
#110 = MANIFOLD_SOLID_BREP ( 'Corps-Déplacer/Copier1[2]', #232 ) ;
#111 = SURFACE_STYLE_USAGE ( .BOTH. , #117 ) ;
#112 = UNCERTAINTY_MEASURE_WITH_UNIT (LENGTH_MEASURE( 1.000000000000000082E-05 ), #131, 'distance_accuracy_value', 'NONE');
#113 = AXIS2_PLACEMENT_3D ( 'NONE', #124, #45, #230 ) ;
#114 = CARTESIAN_POINT ( 'NONE',  ( 1.920314736363723345E-14, 1.299999999999999378, 5.500000000000000000 ) ) ;
#115 = EDGE_CURVE ( 'NONE', #258, #314, #247, .T. ) ;
#116 = AXIS2_PLACEMENT_3D ( 'NONE', #300, #34, #165 ) ;
#117 = SURFACE_SIDE_STYLE ('',( #319 ) ) ;
#118 = DIRECTION ( 'NONE',  ( 3.491481338843133355E-15, -1.224646799147353207E-16, 1.000000000000000000 ) ) ;
#119 = VERTEX_POINT ( 'NONE', #164 ) ;
#120 = CARTESIAN_POINT ( 'NONE',  ( 1.920314736363723345E-14, -1.300000000000000488, 5.500000000000000000 ) ) ;
#121 = CIRCLE ( 'NONE', #58, 1.499999999999996003 ) ;
#122 = DIRECTION ( 'NONE',  ( -3.491481338843133355E-15, 1.224646799147353207E-16, -1.000000000000000000 ) ) ;
#123 = ORIENTED_EDGE ( 'NONE', *, *, #17, .F. ) ;
#124 = CARTESIAN_POINT ( 'NONE',  ( 1.920314736363723345E-14, -6.735557395310442023E-16, 5.500000000000000000 ) ) ;
#125 = EDGE_LOOP ( 'NONE', ( #280, #23, #46, #206 ) ) ;
#126 = DIRECTION ( 'NONE',  ( 3.491481338843133355E-15, -0.000000000000000000, 1.000000000000000000 ) ) ;
#127 = FILL_AREA_STYLE ('',( #176 ) ) ;
#128 = ORIENTED_EDGE ( 'NONE', *, *, #188, .F. ) ;
#129 = DIRECTION ( 'NONE',  ( -3.491481338843133355E-15, 1.224646799147353207E-16, -1.000000000000000000 ) ) ;
#130 = ADVANCED_FACE ( 'NONE', ( #8 ), #88, .T. ) ;
#131 =( LENGTH_UNIT ( ) NAMED_UNIT ( * ) SI_UNIT ( .MILLI., .METRE. ) );
#132 = EDGE_LOOP ( 'NONE', ( #318, #21, #238, #159 ) ) ;
#133 = APPLICATION_PROTOCOL_DEFINITION ( 'draft international standard', 'automotive_design', 1998, #74 ) ;
#134 = PRESENTATION_LAYER_ASSIGNMENT (  '', '', ( #334 ) ) ;
#135 = EDGE_LOOP ( 'NONE', ( #95, #179, #326, #243 ) ) ;
#136 = ORIENTED_EDGE ( 'NONE', *, *, #271, .T. ) ;
#137 = FILL_AREA_STYLE_COLOUR ( '', #43 ) ;
#138 = MECHANICAL_DESIGN_GEOMETRIC_PRESENTATION_REPRESENTATION (  '', ( #334 ), #297 ) ;
#139 = EDGE_CURVE ( 'NONE', #343, #258, #276, .T. ) ;
#140 = DIRECTION ( 'NONE',  ( -3.491481338843133355E-15, 1.224646799147356658E-16, -1.000000000000000000 ) ) ;
#141 = AXIS2_PLACEMENT_3D ( 'NONE', #97, #168, #228 ) ;
#142 = CARTESIAN_POINT ( 'NONE',  ( 7.638735685069601297E-14, 1.499999999999991118, 37.69999999999998863 ) ) ;
#143 = CARTESIAN_POINT ( 'NONE',  ( 1.300000000000000044, 0.000000000000000000, -4.538925740496073362E-15 ) ) ;
#144 = AXIS2_PLACEMENT_3D ( 'NONE', #178, #313, #310 ) ;
#145 = PLANE ( 'NONE',  #70 ) ;
#146 = ORIENTED_EDGE ( 'NONE', *, *, #278, .T. ) ;
#147 = CONICAL_SURFACE ( 'NONE', #180, 1.300000000000000044, 0.3450620389298187374 ) ;
#148 = DIRECTION ( 'NONE',  ( -4.275831445896958607E-31, -1.000000000000000000, -1.224646799147353207E-16 ) ) ;
#149 = ORIENTED_EDGE ( 'NONE', *, *, #91, .F. ) ;
#150 = CARTESIAN_POINT ( 'NONE',  ( 2.114586722700593316E-14, 1.499999999999995337, 6.056417083418351943 ) ) ;
#151 = ORIENTED_EDGE ( 'NONE', *, *, #115, .F. ) ;
#152 = VECTOR ( 'NONE', #35, 1000.000000000000114 ) ;
#153 = SURFACE_SIDE_STYLE ('',( #337 ) ) ;
#154 = ORIENTED_EDGE ( 'NONE', *, *, #261, .T. ) ;
#155 = EDGE_CURVE ( 'NONE', #314, #283, #26, .T. ) ;
#156 = FACE_OUTER_BOUND ( 'NONE', #207, .T. ) ;
#157 = DIRECTION ( 'NONE',  ( 0.000000000000000000, 1.000000000000000000, 0.000000000000000000 ) ) ;
#158 = CYLINDRICAL_SURFACE ( 'NONE', #83, 1.499999999999995781 ) ;
#159 = ORIENTED_EDGE ( 'NONE', *, *, #309, .F. ) ;
#160 = VECTOR ( 'NONE', #245, 1000.000000000000000 ) ;
#161 = EDGE_LOOP ( 'NONE', ( #151, #336, #324, #57 ) ) ;
#162 = DIRECTION ( 'NONE',  ( -3.491481338843133355E-15, 0.000000000000000000, -1.000000000000000000 ) ) ;
#163 =( GEOMETRIC_REPRESENTATION_CONTEXT ( 3 ) GLOBAL_UNCERTAINTY_ASSIGNED_CONTEXT ( ( #274 ) ) GLOBAL_UNIT_ASSIGNED_CONTEXT ( ( #190, #298, #60 ) ) REPRESENTATION_CONTEXT ( 'NONE', 'WORKASPACE' ) );
#164 = CARTESIAN_POINT ( 'NONE',  ( 1.300000000000018696, 0.000000000000000000, 5.499999999999995559 ) ) ;
#165 = DIRECTION ( 'NONE',  ( 1.000000000000000000, 0.000000000000000000, -3.336006684570784088E-15 ) ) ;
#166 = ADVANCED_BREP_SHAPE_REPRESENTATION ( '41572', ( #109, #110, #291 ), #65 ) ;
#167 = DIRECTION ( 'NONE',  ( 3.491481338843133355E-15, -0.000000000000000000, 1.000000000000000000 ) ) ;
#168 = DIRECTION ( 'NONE',  ( 3.491481338843133355E-15, -1.224646799147353207E-16, 1.000000000000000000 ) ) ;
#169 = ORIENTED_EDGE ( 'NONE', *, *, #213, .F. ) ;
#170 = CARTESIAN_POINT ( 'NONE',  ( 1.326762908760390423E-13, -4.653657836759941941E-15, 38.00000000000000000 ) ) ;
#171 = CARTESIAN_POINT ( 'NONE',  ( 1.920314736363723345E-14, 0.000000000000000000, 5.500000000000000000 ) ) ;
#172 = VERTEX_POINT ( 'NONE', #14 ) ;
#173 = VECTOR ( 'NONE', #255, 1000.000000000000114 ) ;
#174 = EDGE_CURVE ( 'NONE', #283, #314, #121, .T. ) ;
#175 = LINE ( 'NONE', #285, #246 ) ;
#176 = FILL_AREA_STYLE_COLOUR ( '', #55 ) ;
#177 = ORIENTED_EDGE ( 'NONE', *, *, #174, .T. ) ;
#178 = CARTESIAN_POINT ( 'NONE',  ( 1.316288464743860959E-13, -4.616918432785520292E-15, 37.69999999999998863 ) ) ;
#179 = ORIENTED_EDGE ( 'NONE', *, *, #188, .T. ) ;
#180 = AXIS2_PLACEMENT_3D ( 'NONE', #86, #33, #3 ) ;
#181 = SHAPE_DEFINITION_REPRESENTATION ( #218, #166 ) ;
#182 = ORIENTED_EDGE ( 'NONE', *, *, #244, .F. ) ;
#183 = DIRECTION ( 'NONE',  ( 1.000000000000000000, 0.000000000000000000, -3.336006684570784088E-15 ) ) ;
#184 = FACE_OUTER_BOUND ( 'NONE', #161, .T. ) ;
#185 = PRESENTATION_LAYER_ASSIGNMENT (  '', '', ( #306 ) ) ;
#186 = CARTESIAN_POINT ( 'NONE',  ( 2.034595784720221346E-14, 1.299999999999999378, 5.500000000000000000 ) ) ;
#187 = SURFACE_STYLE_FILL_AREA ( #273 ) ;
#188 = EDGE_CURVE ( 'NONE', #37, #234, #250, .T. ) ;
#189 = CLOSED_SHELL ( 'NONE', ( #275, #85, #331, #68, #264, #59, #222, #29 ) ) ;
#190 =( LENGTH_UNIT ( ) NAMED_UNIT ( * ) SI_UNIT ( .MILLI., .METRE. ) );
#191 = CIRCLE ( 'NONE', #293, 1.300000000000000044 ) ;
#192 =( NAMED_UNIT ( * ) SI_UNIT ( $, .STERADIAN. ) SOLID_ANGLE_UNIT ( ) );
#193 = CONICAL_SURFACE ( 'NONE', #141, 1.300000000000000044, 0.3450620389298187374 ) ;
#194 = LINE ( 'NONE', #120, #89 ) ;
#195 = CONICAL_SURFACE ( 'NONE', #4, 1.499999999999995781, 0.7853981633974450594 ) ;
#196 = DIRECTION ( 'NONE',  ( -3.491481338843133355E-15, 1.224646799147353207E-16, -1.000000000000000000 ) ) ;
#197 = PLANE ( 'NONE',  #47 ) ;
#198 = AXIS2_PLACEMENT_3D ( 'NONE', #226, #328, #71 ) ;
#199 = DIRECTION ( 'NONE',  ( 1.000000000000000000, 0.000000000000000000, -3.491481338843133355E-15 ) ) ;
#200 = EDGE_LOOP ( 'NONE', ( #123, #18, #177, #329 ) ) ;
#201 = AXIS2_PLACEMENT_3D ( 'NONE', #294, #25, #287 ) ;
#202 = CARTESIAN_POINT ( 'NONE',  ( 1.936235144752638788E-14, 1.299999999999999378, 5.500000000000000000 ) ) ;
#203 =( NAMED_UNIT ( * ) SI_UNIT ( $, .STERADIAN. ) SOLID_ANGLE_UNIT ( ) );
#204 = CARTESIAN_POINT ( 'NONE',  ( 6.413747168845419518E-31, 1.499999999999995781, 1.836970198721024511E-16 ) ) ;
#205 = PRODUCT_DEFINITION_FORMATION_WITH_SPECIFIED_SOURCE ( 'ANY', '', #212, .NOT_KNOWN. ) ;
#206 = ORIENTED_EDGE ( 'NONE', *, *, #5, .F. ) ;
#207 = EDGE_LOOP ( 'NONE', ( #41, #98 ) ) ;
#208 =( NAMED_UNIT ( * ) SI_UNIT ( $, .STERADIAN. ) SOLID_ANGLE_UNIT ( ) );
#209 = DIRECTION ( 'NONE',  ( -3.491481338843133355E-15, 1.224646799147356658E-16, -1.000000000000000000 ) ) ;
#210 = EDGE_CURVE ( 'NONE', #172, #119, #312, .T. ) ;
#211 = DIRECTION ( 'NONE',  ( 4.275831445896958607E-31, 1.000000000000000000, 1.224646799147353207E-16 ) ) ;
#212 = PRODUCT ( '41572', '41572', '', ( #315 ) ) ;
#213 = EDGE_CURVE ( 'NONE', #119, #172, #100, .T. ) ;
#214 = FILL_AREA_STYLE ('',( #215 ) ) ;
#215 = FILL_AREA_STYLE_COLOUR ( '', #256 ) ;
#216 = DIRECTION ( 'NONE',  ( -3.491481338843133355E-15, 1.224646799147353207E-16, -1.000000000000000000 ) ) ;
#217 = CIRCLE ( 'NONE', #225, 1.199999999999989075 ) ;
#218 = PRODUCT_DEFINITION_SHAPE ( 'NONE', 'NONE',  #295 ) ;
#219 = DIRECTION ( 'NONE',  ( 3.730349362740526607E-14, -1.000000000000000000, 0.000000000000000000 ) ) ;
#220 = AXIS2_PLACEMENT_3D ( 'NONE', #233, #196, #36 ) ;
#221 =( NAMED_UNIT ( * ) PLANE_ANGLE_UNIT ( ) SI_UNIT ( $, .RADIAN. ) );
#222 = ADVANCED_FACE ( 'NONE', ( #67 ), #193, .T. ) ;
#223 = CARTESIAN_POINT ( 'NONE',  ( 5.344789307371193879E-32, 1.300000000000000044, 1.530808498934190585E-17 ) ) ;
#224 = VERTEX_POINT ( 'NONE', #69 ) ;
#225 = AXIS2_PLACEMENT_3D ( 'NONE', #170, #118, #66 ) ;
#226 = CARTESIAN_POINT ( 'NONE',  ( 1.316288464743860959E-13, -4.616918432785520292E-15, 37.69999999999998863 ) ) ;
#227 = EDGE_CURVE ( 'NONE', #343, #229, #217, .T. ) ;
#228 = DIRECTION ( 'NONE',  ( 0.000000000000000000, -1.000000000000000000, 0.000000000000000000 ) ) ;
#229 = VERTEX_POINT ( 'NONE', #99 ) ;
#230 = DIRECTION ( 'NONE',  ( 0.000000000000000000, 1.000000000000000000, 0.000000000000000000 ) ) ;
#231 = ORIENTED_EDGE ( 'NONE', *, *, #252, .T. ) ;
#232 = CLOSED_SHELL ( 'NONE', ( #130, #10, #80, #236 ) ) ;
#233 = CARTESIAN_POINT ( 'NONE',  ( 2.114586722700593316E-14, -7.416971795509632320E-16, 6.056417083418351943 ) ) ;
#234 = VERTEX_POINT ( 'NONE', #143 ) ;
#235 = AXIS2_PLACEMENT_3D ( 'NONE', #114, #162, #64 ) ;
#236 = ADVANCED_FACE ( 'NONE', ( #13 ), #145, .F. ) ;
#237 = SURFACE_STYLE_USAGE ( .BOTH. , #153 ) ;
#238 = ORIENTED_EDGE ( 'NONE', *, *, #244, .T. ) ;
#239 = EDGE_LOOP ( 'NONE', ( #136, #92 ) ) ;
#240 = LINE ( 'NONE', #204, #82 ) ;
#241 = MECHANICAL_DESIGN_GEOMETRIC_PRESENTATION_REPRESENTATION (  '', ( #306 ), #163 ) ;
#242 = CARTESIAN_POINT ( 'NONE',  ( 1.323178959930974653E-13, -1.199999999999993516, 38.00000000000000000 ) ) ;
#243 = ORIENTED_EDGE ( 'NONE', *, *, #210, .F. ) ;
#244 = EDGE_CURVE ( 'NONE', #229, #307, #277, .T. ) ;
#245 = DIRECTION ( 'NONE',  ( 3.491481338843133355E-15, -0.000000000000000000, 1.000000000000000000 ) ) ;
#246 = VECTOR ( 'NONE', #126, 1000.000000000000000 ) ;
#247 = LINE ( 'NONE', #7, #322 ) ;
#248 = SURFACE_STYLE_USAGE ( .BOTH. , #62 ) ;
#249 = PRESENTATION_LAYER_ASSIGNMENT (  '', '', ( #2 ) ) ;
#250 = CIRCLE ( 'NONE', #72, 1.300000000000000044 ) ;
#251 = DIRECTION ( 'NONE',  ( 1.000000000000000000, 0.000000000000000000, -3.336006684570784482E-15 ) ) ;
#252 = EDGE_CURVE ( 'NONE', #234, #37, #267, .T. ) ;
#253 = DIRECTION ( 'NONE',  ( 0.000000000000000000, 1.000000000000000000, 0.000000000000000000 ) ) ;
#254 = EDGE_LOOP ( 'NONE', ( #292, #286, #154, #265 ) ) ;
#255 = DIRECTION ( 'NONE',  ( -2.382254525458724175E-15, -0.7071067811865451302, -0.7071067811865499042 ) ) ;
#256 = COLOUR_RGB ( '',0.8980392156862745390, 0.9176470588235293713, 0.9294117647058823817 ) ;
#257 = DIRECTION ( 'NONE',  ( 3.491481338843133355E-15, -0.000000000000000000, 1.000000000000000000 ) ) ;
#258 = VERTEX_POINT ( 'NONE', #305 ) ;
#259 = CARTESIAN_POINT ( 'NONE',  ( 2.114586722700593316E-14, -7.416971795509632320E-16, 6.056417083418351943 ) ) ;
#260 = ORIENTED_EDGE ( 'NONE', *, *, #139, .T. ) ;
#261 = EDGE_CURVE ( 'NONE', #224, #314, #194, .T. ) ;
#262 = DIRECTION ( 'NONE',  ( -3.491481338843133355E-15, 1.224646799147353207E-16, -1.000000000000000000 ) ) ;
#263 = PLANE ( 'NONE',  #235 ) ;
#264 = ADVANCED_FACE ( 'NONE', ( #325 ), #197, .T. ) ;
#265 = ORIENTED_EDGE ( 'NONE', *, *, #155, .T. ) ;
#266 = APPLICATION_CONTEXT ( 'automotive_design' ) ;
#267 = CIRCLE ( 'NONE', #272, 1.300000000000000044 ) ;
#268 = CARTESIAN_POINT ( 'NONE',  ( -1.300000000000000266, 1.592040838891570928E-16, 4.538925740496074151E-15 ) ) ;
#269 = AXIS2_PLACEMENT_3D ( 'NONE', #171, #303, #251 ) ;
#270 = DIRECTION ( 'NONE',  ( 4.275831445896958607E-31, 1.000000000000000000, 1.224646799147353207E-16 ) ) ;
#271 = EDGE_CURVE ( 'NONE', #224, #15, #301, .T. ) ;
#272 = AXIS2_PLACEMENT_3D ( 'NONE', #42, #167, #327 ) ;
#273 = FILL_AREA_STYLE ('',( #137 ) ) ;
#274 = UNCERTAINTY_MEASURE_WITH_UNIT (LENGTH_MEASURE( 1.000000000000000082E-05 ), #190, 'distance_accuracy_value', 'NONE');
#275 = ADVANCED_FACE ( 'NONE', ( #279 ), #330, .T. ) ;
#276 = LINE ( 'NONE', #282, #173 ) ;
#277 = LINE ( 'NONE', #323, #38 ) ;
#278 = EDGE_CURVE ( 'NONE', #37, #172, #175, .T. ) ;
#279 = FACE_OUTER_BOUND ( 'NONE', #73, .T. ) ;
#280 = ORIENTED_EDGE ( 'NONE', *, *, #91, .T. ) ;
#281 = DIRECTION ( 'NONE',  ( 3.491481338843133355E-15, -0.000000000000000000, 1.000000000000000000 ) ) ;
#282 = CARTESIAN_POINT ( 'NONE',  ( 1.318125434942581860E-13, -1.500000000000000222, 37.69999999999998863 ) ) ;
#283 = VERTEX_POINT ( 'NONE', #150 ) ;
#284 = AXIS2_PLACEMENT_3D ( 'NONE', #81, #262, #270 ) ;
#285 = CARTESIAN_POINT ( 'NONE',  ( -1.299999999999980282, 1.592040838891558602E-16, 5.500000000000004441 ) ) ;
#286 = ORIENTED_EDGE ( 'NONE', *, *, #271, .F. ) ;
#287 = DIRECTION ( 'NONE',  ( 0.000000000000000000, -1.000000000000000000, 0.000000000000000000 ) ) ;
#288 = AXIS2_PLACEMENT_3D ( 'NONE', #75, #50, #211 ) ;
#289 = CARTESIAN_POINT ( 'NONE',  ( 1.920314736363723345E-14, -6.735557395310442023E-16, 5.500000000000000000 ) ) ;
#290 = FACE_OUTER_BOUND ( 'NONE', #132, .T. ) ;
#291 = AXIS2_PLACEMENT_3D ( 'NONE', #32, #24, #53 ) ;
#292 = ORIENTED_EDGE ( 'NONE', *, *, #299, .F. ) ;
#293 = AXIS2_PLACEMENT_3D ( 'NONE', #289, #52, #157 ) ;
#294 = CARTESIAN_POINT ( 'NONE',  ( 1.326762908760390423E-13, -4.653657836759941941E-15, 38.00000000000000000 ) ) ;
#295 = PRODUCT_DEFINITION ( 'UNKNOWN', '', #205, #51 ) ;
#296 = FACE_OUTER_BOUND ( 'NONE', #125, .T. ) ;
#297 =( GEOMETRIC_REPRESENTATION_CONTEXT ( 3 ) GLOBAL_UNCERTAINTY_ASSIGNED_CONTEXT ( ( #320 ) ) GLOBAL_UNIT_ASSIGNED_CONTEXT ( ( #63, #221, #192 ) ) REPRESENTATION_CONTEXT ( 'NONE', 'WORKASPACE' ) );
#298 =( NAMED_UNIT ( * ) PLANE_ANGLE_UNIT ( ) SI_UNIT ( $, .RADIAN. ) );
#299 = EDGE_CURVE ( 'NONE', #15, #283, #94, .T. ) ;
#300 = CARTESIAN_POINT ( 'NONE',  ( 1.920314736363723345E-14, 0.000000000000000000, 5.500000000000000000 ) ) ;
#301 = CIRCLE ( 'NONE', #113, 1.300000000000000044 ) ;
#302 = DIRECTION ( 'NONE',  ( 3.491481338843133355E-15, -1.224646799147353207E-16, 1.000000000000000000 ) ) ;
#303 = DIRECTION ( 'NONE',  ( 3.491481338843133355E-15, -0.000000000000000000, 1.000000000000000000 ) ) ;
#304 = CARTESIAN_POINT ( 'NONE',  ( 1.326762908760390423E-13, -4.653657836759941941E-15, 38.00000000000000000 ) ) ;
#305 = CARTESIAN_POINT ( 'NONE',  ( 7.657105387056803997E-14, -1.500000000000000222, 37.69999999999998863 ) ) ;
#306 = STYLED_ITEM ( 'NONE', ( #321 ), #110 ) ;
#307 = VERTEX_POINT ( 'NONE', #142 ) ;
#308 = CYLINDRICAL_SURFACE ( 'NONE', #341, 1.299999999999999600 ) ;
#309 = EDGE_CURVE ( 'NONE', #258, #307, #76, .T. ) ;
#310 = DIRECTION ( 'NONE',  ( -3.641531520770513453E-14, -1.000000000000000000, 0.000000000000000000 ) ) ;
#311 = DIRECTION ( 'NONE',  ( 3.491481338843133355E-15, -0.000000000000000000, 1.000000000000000000 ) ) ;
#312 = CIRCLE ( 'NONE', #269, 1.299999999999999378 ) ;
#313 = DIRECTION ( 'NONE',  ( -3.491481338843133355E-15, 1.224646799147356658E-16, -1.000000000000000000 ) ) ;
#314 = VERTEX_POINT ( 'NONE', #20 ) ;
#315 = PRODUCT_CONTEXT ( 'NONE', #74, 'mechanical' ) ;
#316 = CYLINDRICAL_SURFACE ( 'NONE', #284, 1.499999999999995781 ) ;
#317 =( GEOMETRIC_REPRESENTATION_CONTEXT ( 3 ) GLOBAL_UNCERTAINTY_ASSIGNED_CONTEXT ( ( #339 ) ) GLOBAL_UNIT_ASSIGNED_CONTEXT ( ( #335, #77, #203 ) ) REPRESENTATION_CONTEXT ( 'NONE', 'WORKASPACE' ) );
#318 = ORIENTED_EDGE ( 'NONE', *, *, #139, .F. ) ;
#319 = SURFACE_STYLE_FILL_AREA ( #214 ) ;
#320 = UNCERTAINTY_MEASURE_WITH_UNIT (LENGTH_MEASURE( 1.000000000000000082E-05 ), #63, 'distance_accuracy_value', 'NONE');
#321 = PRESENTATION_STYLE_ASSIGNMENT (( #111 ) ) ;
#322 = VECTOR ( 'NONE', #216, 1000.000000000000000 ) ;
#323 = CARTESIAN_POINT ( 'NONE',  ( 1.316288464743860959E-13, 1.499999999999991118, 37.69999999999998863 ) ) ;
#324 = ORIENTED_EDGE ( 'NONE', *, *, #5, .T. ) ;
#325 = FACE_OUTER_BOUND ( 'NONE', #333, .T. ) ;
#326 = ORIENTED_EDGE ( 'NONE', *, *, #39, .T. ) ;
#327 = DIRECTION ( 'NONE',  ( 1.000000000000000000, 0.000000000000000000, -3.491481338843133355E-15 ) ) ;
#328 = DIRECTION ( 'NONE',  ( -3.491481338843133355E-15, 1.224646799147356658E-16, -1.000000000000000000 ) ) ;
#329 = ORIENTED_EDGE ( 'NONE', *, *, #261, .F. ) ;
#330 = CONICAL_SURFACE ( 'NONE', #198, 1.499999999999995781, 0.7853981633974450594 ) ;
#331 = ADVANCED_FACE ( 'NONE', ( #296 ), #158, .T. ) ;
#332 = DIRECTION ( 'NONE',  ( 3.491481338843133355E-15, -0.000000000000000000, 1.000000000000000000 ) ) ;
#333 = EDGE_LOOP ( 'NONE', ( #101, #104 ) ) ;
#334 = STYLED_ITEM ( 'NONE', ( #30 ), #109 ) ;
#335 =( LENGTH_UNIT ( ) NAMED_UNIT ( * ) SI_UNIT ( .MILLI., .METRE. ) );
#336 = ORIENTED_EDGE ( 'NONE', *, *, #309, .T. ) ;
#337 = SURFACE_STYLE_FILL_AREA ( #127 ) ;
#338 = FACE_OUTER_BOUND ( 'NONE', #135, .T. ) ;
#339 = UNCERTAINTY_MEASURE_WITH_UNIT (LENGTH_MEASURE( 1.000000000000000082E-05 ), #335, 'distance_accuracy_value', 'NONE');
#340 = ORIENTED_EDGE ( 'NONE', *, *, #252, .F. ) ;
#341 = AXIS2_PLACEMENT_3D ( 'NONE', #106, #311, #183 ) ;
#342 = CARTESIAN_POINT ( 'NONE',  ( 0.000000000000000000, 0.000000000000000000, 0.000000000000000000 ) ) ;
#343 = VERTEX_POINT ( 'NONE', #242 ) ;
ENDSEC;
END-ISO-10303-21;
