ISO-10303-21;
HEADER;
FILE_DESCRIPTION (( 'STEP AP214' ),
    '1' );
FILE_NAME ('41571.step',
    '2024-04-04T09:32:55',
    ( '' ),
    ( '' ),
    'SwSTEP 2.0',
    'SolidWorks 2022',
    '' );
FILE_SCHEMA (( 'AUTOMOTIVE_DESIGN' ));
ENDSEC;

DATA;
#1 =( NAMED_UNIT ( * ) PLANE_ANGLE_UNIT ( ) SI_UNIT ( $, .RADIAN. ) );
#2 = COLOUR_RGB ( '',0.8980392156862745390, 0.9176470588235293713, 0.9294117647058823817 ) ;
#3 = ADVANCED_FACE ( 'NONE', ( #193 ), #64, .T. ) ;
#4 = DIRECTION ( 'NONE',  ( 3.285674118869262210E-15, -0.3382550599108818945, 0.9410544694355824635 ) ) ;
#5 = CLOSED_SHELL ( 'NONE', ( #170, #3, #9, #292 ) ) ;
#6 = CARTESIAN_POINT ( 'NONE',  ( 1.316288464743860707E-13, -4.616918432785519503E-15, 37.69999999999998153 ) ) ;
#7 = DIRECTION ( 'NONE',  ( 3.491481338843133355E-15, -0.000000000000000000, 1.000000000000000000 ) ) ;
#8 = CARTESIAN_POINT ( 'NONE',  ( 1.789722587108390818E-14, -1.050000000000000711, 4.500000000000000000 ) ) ;
#9 = ADVANCED_FACE ( 'NONE', ( #279 ), #167, .F. ) ;
#10 = CARTESIAN_POINT ( 'NONE',  ( 1.571166602479410010E-14, 0.000000000000000000, 4.500000000000000000 ) ) ;
#11 = CIRCLE ( 'NONE', #323, 1.199999999999985523 ) ;
#12 = CARTESIAN_POINT ( 'NONE',  ( 0.000000000000000000, 0.000000000000000000, 0.000000000000000000 ) ) ;
#13 = AXIS2_PLACEMENT_3D ( 'NONE', #17, #92, #200 ) ;
#14 = FILL_AREA_STYLE ('',( #275 ) ) ;
#15 = EDGE_CURVE ( 'NONE', #146, #301, #123, .T. ) ;
#16 =( NAMED_UNIT ( * ) PLANE_ANGLE_UNIT ( ) SI_UNIT ( $, .RADIAN. ) );
#17 = CARTESIAN_POINT ( 'NONE',  ( 0.000000000000000000, 0.000000000000000000, 0.000000000000000000 ) ) ;
#18 = ORIENTED_EDGE ( 'NONE', *, *, #41, .F. ) ;
#19 = EDGE_LOOP ( 'NONE', ( #95, #256 ) ) ;
#20 = ORIENTED_EDGE ( 'NONE', *, *, #242, .T. ) ;
#21 =( NAMED_UNIT ( * ) PLANE_ANGLE_UNIT ( ) SI_UNIT ( $, .RADIAN. ) );
#22 = VECTOR ( 'NONE', #171, 999.9999999999998863 ) ;
#23 = CARTESIAN_POINT ( 'NONE',  ( 1.323178959930974653E-13, -1.199999999999990186, 38.00000000000000000 ) ) ;
#24 = DIRECTION ( 'NONE',  ( -3.491481338843133355E-15, 1.224646799147353947E-16, -1.000000000000000000 ) ) ;
#25 = VERTEX_POINT ( 'NONE', #23 ) ;
#26 = DIRECTION ( 'NONE',  ( 3.491481338843133355E-15, -1.224646799147353207E-16, 1.000000000000000000 ) ) ;
#27 = VERTEX_POINT ( 'NONE', #44 ) ;
#28 = FACE_OUTER_BOUND ( 'NONE', #250, .T. ) ;
#29 =( GEOMETRIC_REPRESENTATION_CONTEXT ( 3 ) GLOBAL_UNCERTAINTY_ASSIGNED_CONTEXT ( ( #271 ) ) GLOBAL_UNIT_ASSIGNED_CONTEXT ( ( #183, #102, #310 ) ) REPRESENTATION_CONTEXT ( 'NONE', 'WORKASPACE' ) );
#30 = CARTESIAN_POINT ( 'NONE',  ( 1.805336833797519802E-14, 1.049999999999999600, 4.500000000000000000 ) ) ;
#31 = AXIS2_PLACEMENT_3D ( 'NONE', #290, #216, #269 ) ;
#32 = MECHANICAL_DESIGN_GEOMETRIC_PRESENTATION_REPRESENTATION (  '', ( #299 ), #29 ) ;
#33 = DIRECTION ( 'NONE',  ( 3.491481338843133355E-15, -1.224646799147353207E-16, 1.000000000000000000 ) ) ;
#34 = CONICAL_SURFACE ( 'NONE', #191, 1.050000000000000044, 0.3450620389298188484 ) ;
#35 = CARTESIAN_POINT ( 'NONE',  ( 1.316288464743860707E-13, -4.616918432785519503E-15, 37.69999999999998153 ) ) ;
#36 = DIRECTION ( 'NONE',  ( 0.000000000000000000, 1.000000000000000000, 0.000000000000000000 ) ) ;
#37 = PRODUCT_RELATED_PRODUCT_CATEGORY ( 'part', '', ( #245 ) ) ;
#38 = CARTESIAN_POINT ( 'NONE',  ( -1.050000000000000044, 1.285879139104730593E-16, 3.666055405785290023E-15 ) ) ;
#39 = ORIENTED_EDGE ( 'NONE', *, *, #113, .F. ) ;
#40 = MECHANICAL_DESIGN_GEOMETRIC_PRESENTATION_REPRESENTATION (  '', ( #173 ), #237 ) ;
#41 = EDGE_CURVE ( 'NONE', #285, #27, #304, .T. ) ;
#42 = EDGE_LOOP ( 'NONE', ( #124, #46, #88, #89 ) ) ;
#43 = SHAPE_DEFINITION_REPRESENTATION ( #78, #265 ) ;
#44 = CARTESIAN_POINT ( 'NONE',  ( 7.603951311575199935E-14, -1.499999999999996669, 5.751938437691304529 ) ) ;
#45 = DIRECTION ( 'NONE',  ( 0.000000000000000000, 1.000000000000000000, 0.000000000000000000 ) ) ;
#46 = ORIENTED_EDGE ( 'NONE', *, *, #41, .T. ) ;
#47 = PRODUCT_DEFINITION_FORMATION_WITH_SPECIFIED_SOURCE ( 'ANY', '', #245, .NOT_KNOWN. ) ;
#48 = AXIS2_PLACEMENT_3D ( 'NONE', #69, #231, #229 ) ;
#49 = ORIENTED_EDGE ( 'NONE', *, *, #134, .F. ) ;
#50 = VECTOR ( 'NONE', #55, 1000.000000000000000 ) ;
#51 = LINE ( 'NONE', #75, #154 ) ;
#52 = CIRCLE ( 'NONE', #286, 1.499999999999995781 ) ;
#53 = CARTESIAN_POINT ( 'NONE',  ( 1.571166602479410010E-14, -5.510910596163088569E-16, 4.500000000000000000 ) ) ;
#54 = ADVANCED_FACE ( 'NONE', ( #333 ), #330, .T. ) ;
#55 = DIRECTION ( 'NONE',  ( 3.491481338843133355E-15, -0.000000000000000000, 1.000000000000000000 ) ) ;
#56 = VECTOR ( 'NONE', #4, 1000.000000000000000 ) ;
#57 = AXIS2_PLACEMENT_3D ( 'NONE', #81, #103, #287 ) ;
#58 = DIRECTION ( 'NONE',  ( 3.491481338843133355E-15, -0.000000000000000000, 1.000000000000000000 ) ) ;
#59 = FACE_OUTER_BOUND ( 'NONE', #331, .T. ) ;
#60 = DIRECTION ( 'NONE',  ( 4.275831445896958607E-31, 1.000000000000000000, 1.224646799147353207E-16 ) ) ;
#61 = AXIS2_PLACEMENT_3D ( 'NONE', #303, #227, #174 ) ;
#62 = CARTESIAN_POINT ( 'NONE',  ( 2.008278571737371941E-14, -7.044092996611283994E-16, 5.751938437691304529 ) ) ;
#63 = EDGE_LOOP ( 'NONE', ( #202, #68 ) ) ;
#64 = CYLINDRICAL_SURFACE ( 'NONE', #325, 1.049999999999999822 ) ;
#65 = AXIS2_PLACEMENT_3D ( 'NONE', #35, #294, #36 ) ;
#66 = DIRECTION ( 'NONE',  ( -1.000000000000000000, 0.000000000000000000, 3.491481338843133355E-15 ) ) ;
#67 = ORIENTED_EDGE ( 'NONE', *, *, #142, .F. ) ;
#68 = ORIENTED_EDGE ( 'NONE', *, *, #74, .F. ) ;
#69 = CARTESIAN_POINT ( 'NONE',  ( 1.571166602479410010E-14, 1.049999999999999600, 4.500000000000000000 ) ) ;
#70 = EDGE_CURVE ( 'NONE', #255, #301, #152, .T. ) ;
#71 = AXIS2_PLACEMENT_3D ( 'NONE', #6, #143, #317 ) ;
#72 = AXIS2_PLACEMENT_3D ( 'NONE', #150, #168, #66 ) ;
#73 = DIRECTION ( 'NONE',  ( 3.491481338843133355E-15, -0.000000000000000000, 1.000000000000000000 ) ) ;
#74 = EDGE_CURVE ( 'NONE', #328, #300, #130, .T. ) ;
#75 = CARTESIAN_POINT ( 'NONE',  ( 1.316288464743860707E-13, 1.499999999999991118, 37.69999999999998153 ) ) ;
#76 = EDGE_CURVE ( 'NONE', #295, #203, #104, .T. ) ;
#77 = DIRECTION ( 'NONE',  ( 0.000000000000000000, -1.000000000000000000, 0.000000000000000000 ) ) ;
#78 = PRODUCT_DEFINITION_SHAPE ( 'NONE', 'NONE',  #91 ) ;
#79 = DIRECTION ( 'NONE',  ( -3.491481338843133355E-15, 1.224646799147353207E-16, -1.000000000000000000 ) ) ;
#80 = DIRECTION ( 'NONE',  ( 1.000000000000000000, 0.000000000000000000, -3.304235192336776695E-15 ) ) ;
#81 = CARTESIAN_POINT ( 'NONE',  ( 1.571166602479410010E-14, -5.510910596163088569E-16, 4.500000000000000000 ) ) ;
#82 = VECTOR ( 'NONE', #58, 1000.000000000000000 ) ;
#83 = PRODUCT_CONTEXT ( 'NONE', #319, 'mechanical' ) ;
#84 = ORIENTED_EDGE ( 'NONE', *, *, #15, .T. ) ;
#85 = ORIENTED_EDGE ( 'NONE', *, *, #139, .F. ) ;
#86 = DIRECTION ( 'NONE',  ( -3.491481338843133355E-15, 1.224646799147353207E-16, -1.000000000000000000 ) ) ;
#87 = ORIENTED_EDGE ( 'NONE', *, *, #225, .F. ) ;
#88 = ORIENTED_EDGE ( 'NONE', *, *, #314, .F. ) ;
#89 = ORIENTED_EDGE ( 'NONE', *, *, #70, .F. ) ;
#90 = PRESENTATION_STYLE_ASSIGNMENT (( #230 ) ) ;
#91 = PRODUCT_DEFINITION ( 'UNKNOWN', '', #47, #332 ) ;
#92 = DIRECTION ( 'NONE',  ( 3.491481338843133355E-15, -0.000000000000000000, 1.000000000000000000 ) ) ;
#93 = ORIENTED_EDGE ( 'NONE', *, *, #220, .F. ) ;
#94 = LINE ( 'NONE', #342, #101 ) ;
#95 = ORIENTED_EDGE ( 'NONE', *, *, #258, .T. ) ;
#96 = AXIS2_PLACEMENT_3D ( 'NONE', #182, #160, #211 ) ;
#97 = COLOUR_RGB ( '',0.8980392156862745390, 0.9176470588235293713, 0.9294117647058823817 ) ;
#98 = MANIFOLD_SOLID_BREP ( 'Corps-Déplacer/Copier1[1]', #116 ) ;
#99 = EDGE_CURVE ( 'NONE', #146, #337, #217, .T. ) ;
#100 = ORIENTED_EDGE ( 'NONE', *, *, #242, .F. ) ;
#101 = VECTOR ( 'NONE', #155, 1000.000000000000000 ) ;
#102 =( NAMED_UNIT ( * ) PLANE_ANGLE_UNIT ( ) SI_UNIT ( $, .RADIAN. ) );
#103 = DIRECTION ( 'NONE',  ( -3.491481338843133355E-15, 1.224646799147353207E-16, -1.000000000000000000 ) ) ;
#104 = CIRCLE ( 'NONE', #61, 1.049999999999999600 ) ;
#105 = DIRECTION ( 'NONE',  ( -4.275831445896958607E-31, -1.000000000000000000, -1.224646799147353207E-16 ) ) ;
#106 = DIRECTION ( 'NONE',  ( 3.491481338843133355E-15, -1.224646799147353207E-16, 1.000000000000000000 ) ) ;
#107 = EDGE_CURVE ( 'NONE', #175, #255, #51, .T. ) ;
#108 = CARTESIAN_POINT ( 'NONE',  ( 0.000000000000000000, 0.000000000000000000, 0.000000000000000000 ) ) ;
#109 = CIRCLE ( 'NONE', #71, 1.499999999999995781 ) ;
#110 = FACE_OUTER_BOUND ( 'NONE', #42, .T. ) ;
#111 = CARTESIAN_POINT ( 'NONE',  ( 7.603951311575192362E-14, -1.500000000000000222, 37.69999999999998153 ) ) ;
#112 = CYLINDRICAL_SURFACE ( 'NONE', #306, 1.499999999999995781 ) ;
#113 = EDGE_CURVE ( 'NONE', #328, #203, #132, .T. ) ;
#114 = ORIENTED_EDGE ( 'NONE', *, *, #139, .T. ) ;
#115 = CIRCLE ( 'NONE', #244, 1.049999999999999600 ) ;
#116 = CLOSED_SHELL ( 'NONE', ( #194, #196, #280, #54, #259, #316, #247, #263 ) ) ;
#117 = ORIENTED_EDGE ( 'NONE', *, *, #142, .T. ) ;
#118 = CIRCLE ( 'NONE', #283, 1.050000000000000044 ) ;
#119 = DIRECTION ( 'NONE',  ( 1.000000000000000000, 0.000000000000000000, 0.000000000000000000 ) ) ;
#120 = ORIENTED_EDGE ( 'NONE', *, *, #107, .T. ) ;
#121 = APPLICATION_CONTEXT ( 'automotive_design' ) ;
#122 = UNCERTAINTY_MEASURE_WITH_UNIT (LENGTH_MEASURE( 1.000000000000000082E-05 ), #329, 'distance_accuracy_value', 'NONE');
#123 = LINE ( 'NONE', #327, #22 ) ;
#124 = ORIENTED_EDGE ( 'NONE', *, *, #134, .T. ) ;
#125 = SURFACE_SIDE_STYLE ('',( #192 ) ) ;
#126 = DIRECTION ( 'NONE',  ( -3.491481338843133355E-15, 1.224646799147353207E-16, -1.000000000000000000 ) ) ;
#127 = CARTESIAN_POINT ( 'NONE',  ( 1.321525686752125691E-13, 1.199999999999981082, 38.00000000000000000 ) ) ;
#128 = ORIENTED_EDGE ( 'NONE', *, *, #221, .T. ) ;
#129 = AXIS2_PLACEMENT_3D ( 'NONE', #187, #293, #105 ) ;
#130 = CIRCLE ( 'NONE', #13, 1.050000000000000044 ) ;
#131 = SURFACE_STYLE_FILL_AREA ( #157 ) ;
#132 = LINE ( 'NONE', #289, #50 ) ;
#133 = CARTESIAN_POINT ( 'NONE',  ( 1.050000000000015365, 0.000000000000000000, 4.499999999999996447 ) ) ;
#134 = EDGE_CURVE ( 'NONE', #255, #285, #52, .T. ) ;
#135 = CONICAL_SURFACE ( 'NONE', #169, 1.050000000000000044, 0.3450620389298188484 ) ;
#136 = LINE ( 'NONE', #184, #56 ) ;
#137 = VECTOR ( 'NONE', #126, 1000.000000000000000 ) ;
#138 = FACE_OUTER_BOUND ( 'NONE', #257, .T. ) ;
#139 = EDGE_CURVE ( 'NONE', #300, #295, #339, .T. ) ;
#140 = CARTESIAN_POINT ( 'NONE',  ( 1.571166602479410010E-14, 0.000000000000000000, 4.500000000000000000 ) ) ;
#141 = UNCERTAINTY_MEASURE_WITH_UNIT (LENGTH_MEASURE( 1.000000000000000082E-05 ), #270, 'distance_accuracy_value', 'NONE');
#142 = EDGE_CURVE ( 'NONE', #25, #285, #94, .T. ) ;
#143 = DIRECTION ( 'NONE',  ( -3.491481338843133355E-15, 1.224646799147353947E-16, -1.000000000000000000 ) ) ;
#144 = CARTESIAN_POINT ( 'NONE',  ( 6.413747168845443822E-32, 1.050000000000000044, 1.836970198721031290E-17 ) ) ;
#145 =( NAMED_UNIT ( * ) SI_UNIT ( $, .STERADIAN. ) SOLID_ANGLE_UNIT ( ) );
#146 = VERTEX_POINT ( 'NONE', #30 ) ;
#147 =( GEOMETRIC_REPRESENTATION_CONTEXT ( 3 ) GLOBAL_UNCERTAINTY_ASSIGNED_CONTEXT ( ( #122 ) ) GLOBAL_UNIT_ASSIGNED_CONTEXT ( ( #329, #16, #145 ) ) REPRESENTATION_CONTEXT ( 'NONE', 'WORKASPACE' ) );
#148 = ORIENTED_EDGE ( 'NONE', *, *, #99, .F. ) ;
#149 = ORIENTED_EDGE ( 'NONE', *, *, #76, .F. ) ;
#150 = CARTESIAN_POINT ( 'NONE',  ( 1.571166602479410010E-14, 1.049999999999999600, 4.500000000000000000 ) ) ;
#151 = DIRECTION ( 'NONE',  ( 4.275831445896958607E-31, 1.000000000000000000, 1.224646799147353207E-16 ) ) ;
#152 = LINE ( 'NONE', #251, #137 ) ;
#153 = ORIENTED_EDGE ( 'NONE', *, *, #70, .T. ) ;
#154 = VECTOR ( 'NONE', #240, 1000.000000000000114 ) ;
#155 = DIRECTION ( 'NONE',  ( -2.382254525458739558E-15, -0.7071067811865410224, -0.7071067811865540120 ) ) ;
#156 = ORIENTED_EDGE ( 'NONE', *, *, #76, .T. ) ;
#157 = FILL_AREA_STYLE ('',( #206 ) ) ;
#158 = CONICAL_SURFACE ( 'NONE', #96, 1.499999999999995781, 0.7853981633974392862 ) ;
#159 = SURFACE_STYLE_USAGE ( .BOTH. , #284 ) ;
#160 = DIRECTION ( 'NONE',  ( -3.491481338843133355E-15, 1.224646799147353947E-16, -1.000000000000000000 ) ) ;
#161 = EDGE_CURVE ( 'NONE', #337, #146, #118, .T. ) ;
#162 = DIRECTION ( 'NONE',  ( 1.000000000000000000, 0.000000000000000000, -3.491481338843133355E-15 ) ) ;
#163 = CIRCLE ( 'NONE', #340, 1.050000000000000044 ) ;
#164 = CARTESIAN_POINT ( 'NONE',  ( 7.585581609587989663E-14, 1.499999999999991118, 37.69999999999998153 ) ) ;
#165 = FACE_OUTER_BOUND ( 'NONE', #63, .T. ) ;
#166 = FACE_OUTER_BOUND ( 'NONE', #195, .T. ) ;
#167 = PLANE ( 'NONE',  #72 ) ;
#168 = DIRECTION ( 'NONE',  ( -3.491481338843133355E-15, 0.000000000000000000, -1.000000000000000000 ) ) ;
#169 = AXIS2_PLACEMENT_3D ( 'NONE', #243, #186, #213 ) ;
#170 = ADVANCED_FACE ( 'NONE', ( #28 ), #178, .T. ) ;
#171 = DIRECTION ( 'NONE',  ( 3.327098416510788398E-15, 0.3382550599108817280, 0.9410544694355825746 ) ) ;
#172 = ORIENTED_EDGE ( 'NONE', *, *, #225, .T. ) ;
#173 = STYLED_ITEM ( 'NONE', ( #311 ), #214 ) ;
#174 = DIRECTION ( 'NONE',  ( 1.000000000000000000, 0.000000000000000000, -3.304235192336776695E-15 ) ) ;
#175 = VERTEX_POINT ( 'NONE', #127 ) ;
#176 = MECHANICAL_DESIGN_GEOMETRIC_PRESENTATION_REPRESENTATION (  '', ( #198 ), #147 ) ;
#177 = COLOUR_RGB ( '',0.8980392156862745390, 0.9176470588235293713, 0.9294117647058823817 ) ;
#178 = CYLINDRICAL_SURFACE ( 'NONE', #309, 1.049999999999999822 ) ;
#179 = ORIENTED_EDGE ( 'NONE', *, *, #238, .T. ) ;
#180 = PRESENTATION_STYLE_ASSIGNMENT (( #159 ) ) ;
#181 = AXIS2_PLACEMENT_3D ( 'NONE', #62, #296, #45 ) ;
#182 = CARTESIAN_POINT ( 'NONE',  ( 1.316288464743860707E-13, -4.616918432785519503E-15, 37.69999999999998153 ) ) ;
#183 =( LENGTH_UNIT ( ) NAMED_UNIT ( * ) SI_UNIT ( .MILLI., .METRE. ) );
#184 = CARTESIAN_POINT ( 'NONE',  ( 1.571166602479410010E-14, -1.050000000000000711, 4.500000000000000000 ) ) ;
#185 = AXIS2_PLACEMENT_3D ( 'NONE', #235, #33, #77 ) ;
#186 = DIRECTION ( 'NONE',  ( 3.491481338843133355E-15, -1.224646799147353207E-16, 1.000000000000000000 ) ) ;
#187 = CARTESIAN_POINT ( 'NONE',  ( 1.326762908760390423E-13, -4.653657836759941941E-15, 38.00000000000000000 ) ) ;
#188 = DIRECTION ( 'NONE',  ( 3.491481338843133355E-15, -0.000000000000000000, 1.000000000000000000 ) ) ;
#189 = FACE_OUTER_BOUND ( 'NONE', #19, .T. ) ;
#190 = AXIS2_PLACEMENT_3D ( 'NONE', #246, #248, #119 ) ;
#191 = AXIS2_PLACEMENT_3D ( 'NONE', #53, #26, #204 ) ;
#192 = SURFACE_STYLE_FILL_AREA ( #226 ) ;
#193 = FACE_OUTER_BOUND ( 'NONE', #262, .T. ) ;
#194 = ADVANCED_FACE ( 'NONE', ( #233 ), #158, .T. ) ;
#195 = EDGE_LOOP ( 'NONE', ( #18, #334, #153, #100 ) ) ;
#196 = ADVANCED_FACE ( 'NONE', ( #338 ), #34, .T. ) ;
#197 = DIRECTION ( 'NONE',  ( 3.491481338843133355E-15, -0.000000000000000000, 1.000000000000000000 ) ) ;
#198 = STYLED_ITEM ( 'NONE', ( #90 ), #265 ) ;
#199 = ORIENTED_EDGE ( 'NONE', *, *, #15, .F. ) ;
#200 = DIRECTION ( 'NONE',  ( 1.000000000000000000, 0.000000000000000000, -3.491481338843134144E-15 ) ) ;
#201 =( NAMED_UNIT ( * ) SI_UNIT ( $, .STERADIAN. ) SOLID_ANGLE_UNIT ( ) );
#202 = ORIENTED_EDGE ( 'NONE', *, *, #221, .F. ) ;
#203 = VERTEX_POINT ( 'NONE', #305 ) ;
#204 = DIRECTION ( 'NONE',  ( 0.000000000000000000, -1.000000000000000000, 0.000000000000000000 ) ) ;
#205 = AXIS2_PLACEMENT_3D ( 'NONE', #322, #79, #60 ) ;
#206 = FILL_AREA_STYLE_COLOUR ( '', #2 ) ;
#207 = ORIENTED_EDGE ( 'NONE', *, *, #258, .F. ) ;
#208 = CARTESIAN_POINT ( 'NONE',  ( 1.571166602479410010E-14, -5.510910596163088569E-16, 4.500000000000000000 ) ) ;
#209 = SURFACE_SIDE_STYLE ('',( #131 ) ) ;
#210 = VECTOR ( 'NONE', #86, 1000.000000000000000 ) ;
#211 = DIRECTION ( 'NONE',  ( 0.000000000000000000, 1.000000000000000000, 0.000000000000000000 ) ) ;
#212 = PLANE ( 'NONE',  #268 ) ;
#213 = DIRECTION ( 'NONE',  ( 0.000000000000000000, -1.000000000000000000, 0.000000000000000000 ) ) ;
#214 = MANIFOLD_SOLID_BREP ( 'Corps-Déplacer/Copier1[2]', #5 ) ;
#215 = CONICAL_SURFACE ( 'NONE', #65, 1.499999999999995781, 0.7853981633974392862 ) ;
#216 = DIRECTION ( 'NONE',  ( -3.491481338843133355E-15, 1.224646799147353207E-16, -1.000000000000000000 ) ) ;
#217 = CIRCLE ( 'NONE', #57, 1.050000000000000044 ) ;
#218 = CYLINDRICAL_SURFACE ( 'NONE', #205, 1.499999999999995781 ) ;
#219 = DIRECTION ( 'NONE',  ( 3.491481338843133355E-15, -0.000000000000000000, 1.000000000000000000 ) ) ;
#220 = EDGE_CURVE ( 'NONE', #25, #175, #320, .T. ) ;
#221 = EDGE_CURVE ( 'NONE', #300, #328, #163, .T. ) ;
#222 = CARTESIAN_POINT ( 'NONE',  ( 2.008278571737371941E-14, 1.499999999999995337, 5.751938437691304529 ) ) ;
#223 = EDGE_LOOP ( 'NONE', ( #93, #117, #49, #307 ) ) ;
#224 = ORIENTED_EDGE ( 'NONE', *, *, #99, .T. ) ;
#225 = EDGE_CURVE ( 'NONE', #203, #295, #115, .T. ) ;
#226 = FILL_AREA_STYLE ('',( #335 ) ) ;
#227 = DIRECTION ( 'NONE',  ( 3.491481338843133355E-15, -0.000000000000000000, 1.000000000000000000 ) ) ;
#228 = CARTESIAN_POINT ( 'NONE',  ( 1.050000000000000044, 0.000000000000000000, -3.666055405785290812E-15 ) ) ;
#229 = DIRECTION ( 'NONE',  ( 4.275831445896958607E-31, 1.000000000000000000, 1.224646799147353207E-16 ) ) ;
#230 = SURFACE_STYLE_USAGE ( .BOTH. , #125 ) ;
#231 = DIRECTION ( 'NONE',  ( -3.491481338843133355E-15, 1.224646799147353207E-16, -1.000000000000000000 ) ) ;
#232 = ORIENTED_EDGE ( 'NONE', *, *, #161, .T. ) ;
#233 = FACE_OUTER_BOUND ( 'NONE', #223, .T. ) ;
#234 = EDGE_LOOP ( 'NONE', ( #148, #84, #252, #278 ) ) ;
#235 = CARTESIAN_POINT ( 'NONE',  ( 1.326762908760390423E-13, -4.653657836759941941E-15, 38.00000000000000000 ) ) ;
#236 = EDGE_LOOP ( 'NONE', ( #232, #224 ) ) ;
#237 =( GEOMETRIC_REPRESENTATION_CONTEXT ( 3 ) GLOBAL_UNCERTAINTY_ASSIGNED_CONTEXT ( ( #141 ) ) GLOBAL_UNIT_ASSIGNED_CONTEXT ( ( #270, #1, #273 ) ) REPRESENTATION_CONTEXT ( 'NONE', 'WORKASPACE' ) );
#238 = EDGE_CURVE ( 'NONE', #337, #27, #136, .T. ) ;
#239 = SURFACE_STYLE_USAGE ( .BOTH. , #209 ) ;
#240 = DIRECTION ( 'NONE',  ( -2.468850131082287037E-15, 0.7071067811865412445, -0.7071067811865536790 ) ) ;
#241 = CARTESIAN_POINT ( 'NONE',  ( 1.050000000000015143, 0.000000000000000000, 4.499999999999996447 ) ) ;
#242 = EDGE_CURVE ( 'NONE', #27, #301, #276, .T. ) ;
#243 = CARTESIAN_POINT ( 'NONE',  ( 1.571166602479410010E-14, -5.510910596163088569E-16, 4.500000000000000000 ) ) ;
#244 = AXIS2_PLACEMENT_3D ( 'NONE', #140, #188, #80 ) ;
#245 = PRODUCT ( '41571', '41571', '', ( #83 ) ) ;
#246 = CARTESIAN_POINT ( 'NONE',  ( 0.000000000000000000, 0.000000000000000000, 0.000000000000000000 ) ) ;
#247 = ADVANCED_FACE ( 'NONE', ( #138 ), #135, .T. ) ;
#248 = DIRECTION ( 'NONE',  ( 0.000000000000000000, 0.000000000000000000, 1.000000000000000000 ) ) ;
#249 =( GEOMETRIC_REPRESENTATION_CONTEXT ( 3 ) GLOBAL_UNCERTAINTY_ASSIGNED_CONTEXT ( ( #318 ) ) GLOBAL_UNIT_ASSIGNED_CONTEXT ( ( #324, #21, #201 ) ) REPRESENTATION_CONTEXT ( 'NONE', 'WORKASPACE' ) );
#250 = EDGE_LOOP ( 'NONE', ( #128, #281, #149, #85 ) ) ;
#251 = CARTESIAN_POINT ( 'NONE',  ( 6.413747168845419518E-31, 1.499999999999995781, 1.836970198721024511E-16 ) ) ;
#252 = ORIENTED_EDGE ( 'NONE', *, *, #314, .T. ) ;
#253 = APPLICATION_PROTOCOL_DEFINITION ( 'draft international standard', 'automotive_design', 1998, #121 ) ;
#254 = CARTESIAN_POINT ( 'NONE',  ( 1.836970198721018348E-16, -1.499999999999995781, -1.836970198721030920E-16 ) ) ;
#255 = VERTEX_POINT ( 'NONE', #164 ) ;
#256 = ORIENTED_EDGE ( 'NONE', *, *, #220, .T. ) ;
#257 = EDGE_LOOP ( 'NONE', ( #199, #297, #179, #20 ) ) ;
#258 = EDGE_CURVE ( 'NONE', #175, #25, #11, .T. ) ;
#259 = ADVANCED_FACE ( 'NONE', ( #189 ), #272, .T. ) ;
#260 = DIRECTION ( 'NONE',  ( 0.000000000000000000, 1.000000000000000000, 0.000000000000000000 ) ) ;
#261 = CARTESIAN_POINT ( 'NONE',  ( 1.571166602479410010E-14, 0.000000000000000000, 4.500000000000000000 ) ) ;
#262 = EDGE_LOOP ( 'NONE', ( #39, #277, #114, #87 ) ) ;
#263 = ADVANCED_FACE ( 'NONE', ( #59 ), #215, .T. ) ;
#264 = EDGE_CURVE ( 'NONE', #285, #255, #109, .T. ) ;
#265 = ADVANCED_BREP_SHAPE_REPRESENTATION ( '41571', ( #98, #214, #190 ), #249 ) ;
#266 = SURFACE_STYLE_FILL_AREA ( #14 ) ;
#267 = CARTESIAN_POINT ( 'NONE',  ( 1.316288464743860707E-13, -4.616918432785519503E-15, 37.69999999999998153 ) ) ;
#268 = AXIS2_PLACEMENT_3D ( 'NONE', #144, #219, #162 ) ;
#269 = DIRECTION ( 'NONE',  ( 0.000000000000000000, 1.000000000000000000, 0.000000000000000000 ) ) ;
#270 =( LENGTH_UNIT ( ) NAMED_UNIT ( * ) SI_UNIT ( .MILLI., .METRE. ) );
#271 = UNCERTAINTY_MEASURE_WITH_UNIT (LENGTH_MEASURE( 1.000000000000000082E-05 ), #183, 'distance_accuracy_value', 'NONE');
#272 = PLANE ( 'NONE',  #129 ) ;
#273 =( NAMED_UNIT ( * ) SI_UNIT ( $, .STERADIAN. ) SOLID_ANGLE_UNIT ( ) );
#274 = DIRECTION ( 'NONE',  ( -3.491481338843133355E-15, 1.224646799147353207E-16, -1.000000000000000000 ) ) ;
#275 = FILL_AREA_STYLE_COLOUR ( '', #177 ) ;
#276 = CIRCLE ( 'NONE', #31, 1.499999999999996003 ) ;
#277 = ORIENTED_EDGE ( 'NONE', *, *, #74, .T. ) ;
#278 = ORIENTED_EDGE ( 'NONE', *, *, #238, .F. ) ;
#279 = FACE_OUTER_BOUND ( 'NONE', #336, .T. ) ;
#280 = ADVANCED_FACE ( 'NONE', ( #110 ), #218, .T. ) ;
#281 = ORIENTED_EDGE ( 'NONE', *, *, #113, .T. ) ;
#282 = PRESENTATION_LAYER_ASSIGNMENT (  '', '', ( #173 ) ) ;
#283 = AXIS2_PLACEMENT_3D ( 'NONE', #208, #312, #260 ) ;
#284 = SURFACE_SIDE_STYLE ('',( #266 ) ) ;
#285 = VERTEX_POINT ( 'NONE', #111 ) ;
#286 = AXIS2_PLACEMENT_3D ( 'NONE', #267, #24, #313 ) ;
#287 = DIRECTION ( 'NONE',  ( 0.000000000000000000, 1.000000000000000000, 0.000000000000000000 ) ) ;
#288 = PRESENTATION_LAYER_ASSIGNMENT (  '', '', ( #198 ) ) ;
#289 = CARTESIAN_POINT ( 'NONE',  ( -1.049999999999984057, 1.285879139104720485E-16, 4.500000000000003553 ) ) ;
#290 = CARTESIAN_POINT ( 'NONE',  ( 2.008278571737371941E-14, -7.044092996611283994E-16, 5.751938437691304529 ) ) ;
#291 = DIRECTION ( 'NONE',  ( 1.000000000000000000, 0.000000000000000000, -3.491481338843134144E-15 ) ) ;
#292 = ADVANCED_FACE ( 'NONE', ( #165 ), #212, .F. ) ;
#293 = DIRECTION ( 'NONE',  ( 3.491481338843133355E-15, -1.224646799147353207E-16, 1.000000000000000000 ) ) ;
#294 = DIRECTION ( 'NONE',  ( -3.491481338843133355E-15, 1.224646799147353947E-16, -1.000000000000000000 ) ) ;
#295 = VERTEX_POINT ( 'NONE', #241 ) ;
#296 = DIRECTION ( 'NONE',  ( -3.491481338843133355E-15, 1.224646799147353207E-16, -1.000000000000000000 ) ) ;
#297 = ORIENTED_EDGE ( 'NONE', *, *, #161, .F. ) ;
#298 = CIRCLE ( 'NONE', #181, 1.499999999999996003 ) ;
#299 = STYLED_ITEM ( 'NONE', ( #180 ), #98 ) ;
#300 = VERTEX_POINT ( 'NONE', #228 ) ;
#301 = VERTEX_POINT ( 'NONE', #222 ) ;
#302 = APPLICATION_PROTOCOL_DEFINITION ( 'draft international standard', 'automotive_design', 1998, #319 ) ;
#303 = CARTESIAN_POINT ( 'NONE',  ( 1.571166602479410010E-14, 0.000000000000000000, 4.500000000000000000 ) ) ;
#304 = LINE ( 'NONE', #254, #210 ) ;
#305 = CARTESIAN_POINT ( 'NONE',  ( -1.049999999999983835, 1.285879139104720239E-16, 4.500000000000003553 ) ) ;
#306 = AXIS2_PLACEMENT_3D ( 'NONE', #12, #274, #151 ) ;
#307 = ORIENTED_EDGE ( 'NONE', *, *, #107, .F. ) ;
#308 = PRESENTATION_LAYER_ASSIGNMENT (  '', '', ( #299 ) ) ;
#309 = AXIS2_PLACEMENT_3D ( 'NONE', #261, #73, #343 ) ;
#310 =( NAMED_UNIT ( * ) SI_UNIT ( $, .STERADIAN. ) SOLID_ANGLE_UNIT ( ) );
#311 = PRESENTATION_STYLE_ASSIGNMENT (( #239 ) ) ;
#312 = DIRECTION ( 'NONE',  ( -3.491481338843133355E-15, 1.224646799147353207E-16, -1.000000000000000000 ) ) ;
#313 = DIRECTION ( 'NONE',  ( 3.819167204710537237E-14, -1.000000000000000000, 0.000000000000000000 ) ) ;
#314 = EDGE_CURVE ( 'NONE', #301, #27, #298, .T. ) ;
#315 = DIRECTION ( 'NONE',  ( 0.000000000000000000, -1.000000000000000000, 0.000000000000000000 ) ) ;
#316 = ADVANCED_FACE ( 'NONE', ( #166 ), #112, .T. ) ;
#317 = DIRECTION ( 'NONE',  ( -3.730349362740525976E-14, -1.000000000000000000, 0.000000000000000000 ) ) ;
#318 = UNCERTAINTY_MEASURE_WITH_UNIT (LENGTH_MEASURE( 1.000000000000000082E-05 ), #324, 'distance_accuracy_value', 'NONE');
#319 = APPLICATION_CONTEXT ( 'automotive_design' ) ;
#320 = CIRCLE ( 'NONE', #185, 1.199999999999985523 ) ;
#321 = CARTESIAN_POINT ( 'NONE',  ( 1.326762908760390423E-13, -4.653657836759941941E-15, 38.00000000000000000 ) ) ;
#322 = CARTESIAN_POINT ( 'NONE',  ( 0.000000000000000000, 0.000000000000000000, 0.000000000000000000 ) ) ;
#323 = AXIS2_PLACEMENT_3D ( 'NONE', #321, #106, #315 ) ;
#324 =( LENGTH_UNIT ( ) NAMED_UNIT ( * ) SI_UNIT ( .MILLI., .METRE. ) );
#325 = AXIS2_PLACEMENT_3D ( 'NONE', #10, #197, #326 ) ;
#326 = DIRECTION ( 'NONE',  ( 1.000000000000000000, 0.000000000000000000, -3.304235192336775906E-15 ) ) ;
#327 = CARTESIAN_POINT ( 'NONE',  ( 1.584025393870457074E-14, 1.049999999999999600, 4.500000000000000000 ) ) ;
#328 = VERTEX_POINT ( 'NONE', #38 ) ;
#329 =( LENGTH_UNIT ( ) NAMED_UNIT ( * ) SI_UNIT ( .MILLI., .METRE. ) );
#330 = PLANE ( 'NONE',  #48 ) ;
#331 = EDGE_LOOP ( 'NONE', ( #67, #207, #120, #341 ) ) ;
#332 = PRODUCT_DEFINITION_CONTEXT ( 'detailed design', #121, 'design' ) ;
#333 = FACE_OUTER_BOUND ( 'NONE', #236, .T. ) ;
#334 = ORIENTED_EDGE ( 'NONE', *, *, #264, .T. ) ;
#335 = FILL_AREA_STYLE_COLOUR ( '', #97 ) ;
#336 = EDGE_LOOP ( 'NONE', ( #156, #172 ) ) ;
#337 = VERTEX_POINT ( 'NONE', #8 ) ;
#338 = FACE_OUTER_BOUND ( 'NONE', #234, .T. ) ;
#339 = LINE ( 'NONE', #133, #82 ) ;
#340 = AXIS2_PLACEMENT_3D ( 'NONE', #108, #7, #291 ) ;
#341 = ORIENTED_EDGE ( 'NONE', *, *, #264, .F. ) ;
#342 = CARTESIAN_POINT ( 'NONE',  ( 1.318125434942581860E-13, -1.500000000000000222, 37.69999999999998153 ) ) ;
#343 = DIRECTION ( 'NONE',  ( 1.000000000000000000, 0.000000000000000000, -3.304235192336775906E-15 ) ) ;
ENDSEC;
END-ISO-10303-21;
