ISO-10303-21;
HEADER;
FILE_DESCRIPTION (( 'STEP AP214' ),
    '1' );
FILE_NAME ('41570.step',
    '2024-04-04T09:32:54',
    ( '' ),
    ( '' ),
    'SwSTEP 2.0',
    'SolidWorks 2022',
    '' );
FILE_SCHEMA (( 'AUTOMOTIVE_DESIGN' ));
ENDSEC;

DATA;
#1 =( LENGTH_UNIT ( ) NAMED_UNIT ( * ) SI_UNIT ( .MILLI., .METRE. ) );
#2 = CARTESIAN_POINT ( 'NONE',  ( 6.413747168845419518E-31, 1.499999999999995781, 1.836970198721024511E-16 ) ) ;
#3 = ORIENTED_EDGE ( 'NONE', *, *, #38, .T. ) ;
#4 = DIRECTION ( 'NONE',  ( 3.285674118869261816E-15, -0.3382550599108820610, 0.9410544694355824635 ) ) ;
#5 = DIRECTION ( 'NONE',  ( 3.491481338843133355E-15, -0.000000000000000000, 1.000000000000000000 ) ) ;
#6 = EDGE_LOOP ( 'NONE', ( #44, #114, #167, #90 ) ) ;
#7 = DIRECTION ( 'NONE',  ( 3.819167204710537237E-14, -1.000000000000000000, 0.000000000000000000 ) ) ;
#8 = EDGE_LOOP ( 'NONE', ( #59, #320 ) ) ;
#9 =( NAMED_UNIT ( * ) SI_UNIT ( $, .STERADIAN. ) SOLID_ANGLE_UNIT ( ) );
#10 = MECHANICAL_DESIGN_GEOMETRIC_PRESENTATION_REPRESENTATION (  '', ( #155 ), #304 ) ;
#11 = DIRECTION ( 'NONE',  ( -3.491481338843133355E-15, 1.224646799147359124E-16, -1.000000000000000000 ) ) ;
#12 = CIRCLE ( 'NONE', #200, 1.499999999999995781 ) ;
#13 = DIRECTION ( 'NONE',  ( -4.275831445896958607E-31, -1.000000000000000000, -1.224646799147353207E-16 ) ) ;
#14 = ADVANCED_FACE ( 'NONE', ( #271 ), #215, .T. ) ;
#15 = DIRECTION ( 'NONE',  ( 1.000000000000000000, 0.000000000000000000, 0.000000000000000000 ) ) ;
#16 = DIRECTION ( 'NONE',  ( 3.491481338843133355E-15, -0.000000000000000000, 1.000000000000000000 ) ) ;
#17 = ORIENTED_EDGE ( 'NONE', *, *, #83, .T. ) ;
#18 = ORIENTED_EDGE ( 'NONE', *, *, #182, .F. ) ;
#19 = DIRECTION ( 'NONE',  ( 1.000000000000000000, 0.000000000000000000, -3.491481338843133355E-15 ) ) ;
#20 = ORIENTED_EDGE ( 'NONE', *, *, #283, .F. ) ;
#21 = DIRECTION ( 'NONE',  ( 1.000000000000000000, 0.000000000000000000, -3.469446951953615767E-15 ) ) ;
#22 = FACE_OUTER_BOUND ( 'NONE', #8, .T. ) ;
#23 = STYLED_ITEM ( 'NONE', ( #56 ), #168 ) ;
#24 = CARTESIAN_POINT ( 'NONE',  ( 1.323178959930974906E-13, -1.199999999999993516, 38.00000000000000000 ) ) ;
#25 =( NAMED_UNIT ( * ) PLANE_ANGLE_UNIT ( ) SI_UNIT ( $, .RADIAN. ) );
#26 = CARTESIAN_POINT ( 'NONE',  ( 7.592538641079908494E-14, -1.500000000000000222, 37.69999999999999574 ) ) ;
#27 =( GEOMETRIC_REPRESENTATION_CONTEXT ( 3 ) GLOBAL_UNCERTAINTY_ASSIGNED_CONTEXT ( ( #314 ) ) GLOBAL_UNIT_ASSIGNED_CONTEXT ( ( #231, #181, #78 ) ) REPRESENTATION_CONTEXT ( 'NONE', 'WORKASPACE' ) );
#28 = ADVANCED_FACE ( 'NONE', ( #133 ), #91, .T. ) ;
#29 = FACE_OUTER_BOUND ( 'NONE', #170, .T. ) ;
#30 = AXIS2_PLACEMENT_3D ( 'NONE', #303, #279, #13 ) ;
#31 = PRODUCT_DEFINITION_FORMATION_WITH_SPECIFIED_SOURCE ( 'ANY', '', #79, .NOT_KNOWN. ) ;
#32 = DIRECTION ( 'NONE',  ( 0.000000000000000000, -1.000000000000000000, 0.000000000000000000 ) ) ;
#33 =( NAMED_UNIT ( * ) PLANE_ANGLE_UNIT ( ) SI_UNIT ( $, .RADIAN. ) );
#34 = CARTESIAN_POINT ( 'NONE',  ( 1.985453230746800102E-14, 1.499999999999995337, 5.686564062818848519 ) ) ;
#35 = DIRECTION ( 'NONE',  ( -3.491481338843133355E-15, 1.224646799147359124E-16, -1.000000000000000000 ) ) ;
#36 = AXIS2_PLACEMENT_3D ( 'NONE', #188, #11, #7 ) ;
#37 = CARTESIAN_POINT ( 'NONE',  ( 2.137915722948480453E-32, 0.7499999999999998890, 6.123233995736769426E-18 ) ) ;
#38 = EDGE_CURVE ( 'NONE', #301, #218, #136, .T. ) ;
#39 = DIRECTION ( 'NONE',  ( 0.000000000000000000, -1.000000000000000000, 0.000000000000000000 ) ) ;
#40 = ORIENTED_EDGE ( 'NONE', *, *, #196, .T. ) ;
#41 = CARTESIAN_POINT ( 'NONE',  ( 1.326762908760390423E-13, -4.653657836759941941E-15, 38.00000000000000000 ) ) ;
#42 = ORIENTED_EDGE ( 'NONE', *, *, #325, .F. ) ;
#43 = EDGE_CURVE ( 'NONE', #165, #301, #143, .T. ) ;
#44 = ORIENTED_EDGE ( 'NONE', *, *, #216, .F. ) ;
#45 = PRODUCT_CONTEXT ( 'NONE', #207, 'mechanical' ) ;
#46 = CYLINDRICAL_SURFACE ( 'NONE', #308, 0.7499999999999996669 ) ;
#47 = CARTESIAN_POINT ( 'NONE',  ( 0.000000000000000000, 0.000000000000000000, 0.000000000000000000 ) ) ;
#48 = UNCERTAINTY_MEASURE_WITH_UNIT (LENGTH_MEASURE( 1.000000000000000082E-05 ), #1, 'distance_accuracy_value', 'NONE');
#49 = CARTESIAN_POINT ( 'NONE',  ( 0.000000000000000000, 0.000000000000000000, 0.000000000000000000 ) ) ;
#50 = COLOUR_RGB ( '',0.8980392156862745390, 0.9176470588235293713, 0.9294117647058823817 ) ;
#51 = PRESENTATION_STYLE_ASSIGNMENT (( #339 ) ) ;
#52 = CARTESIAN_POINT ( 'NONE',  ( 1.985453230746800102E-14, -6.964032477677472235E-16, 5.686564062818848519 ) ) ;
#53 = DIRECTION ( 'NONE',  ( 1.000000000000000000, 0.000000000000000000, -3.469446951953616950E-15 ) ) ;
#54 = CARTESIAN_POINT ( 'NONE',  ( 1.634970532855571759E-14, 0.7499999999999994449, 3.600000000000000089 ) ) ;
#55 = DIRECTION ( 'NONE',  ( -1.000000000000000000, 0.000000000000000000, 3.491481338843133355E-15 ) ) ;
#56 = PRESENTATION_STYLE_ASSIGNMENT (( #265 ) ) ;
#57 = FACE_OUTER_BOUND ( 'NONE', #328, .T. ) ;
#58 = CARTESIAN_POINT ( 'NONE',  ( 0.000000000000000000, 0.000000000000000000, 0.000000000000000000 ) ) ;
#59 = ORIENTED_EDGE ( 'NONE', *, *, #77, .T. ) ;
#60 = ORIENTED_EDGE ( 'NONE', *, *, #280, .T. ) ;
#61 =( GEOMETRIC_REPRESENTATION_CONTEXT ( 3 ) GLOBAL_UNCERTAINTY_ASSIGNED_CONTEXT ( ( #48 ) ) GLOBAL_UNIT_ASSIGNED_CONTEXT ( ( #1, #277, #9 ) ) REPRESENTATION_CONTEXT ( 'NONE', 'WORKASPACE' ) );
#62 = ORIENTED_EDGE ( 'NONE', *, *, #182, .T. ) ;
#63 = DIRECTION ( 'NONE',  ( -3.491481338843133355E-15, 1.224646799147353207E-16, -1.000000000000000000 ) ) ;
#64 = MANIFOLD_SOLID_BREP ( 'Corps-Déplacer/Copier1[2]', #256 ) ;
#65 = ADVANCED_FACE ( 'NONE', ( #22 ), #297, .T. ) ;
#66 = ORIENTED_EDGE ( 'NONE', *, *, #294, .F. ) ;
#67 = CARTESIAN_POINT ( 'NONE',  ( 1.985453230746800102E-14, -6.964032477677472235E-16, 5.686564062818848519 ) ) ;
#68 = CIRCLE ( 'NONE', #260, 0.7499999999999994449 ) ;
#69 = CLOSED_SHELL ( 'NONE', ( #14, #206, #330, #65, #28, #144, #241, #107 ) ) ;
#70 = CARTESIAN_POINT ( 'NONE',  ( -0.7499999999999871214, 9.184850993605145972E-17, 3.600000000000002309 ) ) ;
#71 = EDGE_CURVE ( 'NONE', #273, #138, #127, .T. ) ;
#72 = SURFACE_SIDE_STYLE ('',( #232 ) ) ;
#73 = SURFACE_SIDE_STYLE ('',( #76 ) ) ;
#74 = COLOUR_RGB ( '',0.8980392156862745390, 0.9176470588235293713, 0.9294117647058823817 ) ;
#75 = DIRECTION ( 'NONE',  ( -3.491481338843133355E-15, 1.224646799147353207E-16, -1.000000000000000000 ) ) ;
#76 = SURFACE_STYLE_FILL_AREA ( #286 ) ;
#77 = EDGE_CURVE ( 'NONE', #165, #189, #81, .T. ) ;
#78 =( NAMED_UNIT ( * ) SI_UNIT ( $, .STERADIAN. ) SOLID_ANGLE_UNIT ( ) );
#79 = PRODUCT ( '41570', '41570', '', ( #45 ) ) ;
#80 = VECTOR ( 'NONE', #105, 1000.000000000000000 ) ;
#81 = CIRCLE ( 'NONE', #148, 0.7499999999999998890 ) ;
#82 = DIRECTION ( 'NONE',  ( -3.491481338843133355E-15, 1.224646799147353207E-16, -1.000000000000000000 ) ) ;
#83 = EDGE_CURVE ( 'NONE', #273, #115, #100, .T. ) ;
#84 = AXIS2_PLACEMENT_3D ( 'NONE', #234, #82, #186 ) ;
#85 = CARTESIAN_POINT ( 'NONE',  ( 1.256933281983528008E-14, 0.000000000000000000, 3.600000000000000089 ) ) ;
#86 = EDGE_LOOP ( 'NONE', ( #42, #244 ) ) ;
#87 = ADVANCED_FACE ( 'NONE', ( #180 ), #46, .T. ) ;
#88 = ORIENTED_EDGE ( 'NONE', *, *, #291, .T. ) ;
#89 = CARTESIAN_POINT ( 'NONE',  ( 1.256933281983528008E-14, -0.7500000000000003331, 3.600000000000000089 ) ) ;
#90 = ORIENTED_EDGE ( 'NONE', *, *, #38, .F. ) ;
#91 = PLANE ( 'NONE',  #30 ) ;
#92 = VERTEX_POINT ( 'NONE', #124 ) ;
#93 = DIRECTION ( 'NONE',  ( 0.000000000000000000, -1.000000000000000000, 0.000000000000000000 ) ) ;
#94 = ORIENTED_EDGE ( 'NONE', *, *, #139, .F. ) ;
#95 = LINE ( 'NONE', #154, #319 ) ;
#96 = SHAPE_DEFINITION_REPRESENTATION ( #226, #251 ) ;
#97 = CIRCLE ( 'NONE', #293, 0.7499999999999994449 ) ;
#98 = CARTESIAN_POINT ( 'NONE',  ( 1.256933281983528008E-14, -4.408728476930471151E-16, 3.600000000000000089 ) ) ;
#99 = AXIS2_PLACEMENT_3D ( 'NONE', #312, #284, #175 ) ;
#100 = CIRCLE ( 'NONE', #217, 0.7499999999999998890 ) ;
#101 = DIRECTION ( 'NONE',  ( -3.491481338843133355E-15, 1.224646799147353207E-16, -1.000000000000000000 ) ) ;
#102 = DIRECTION ( 'NONE',  ( 4.275831445896958607E-31, 1.000000000000000000, 1.224646799147353207E-16 ) ) ;
#103 = CARTESIAN_POINT ( 'NONE',  ( 1.321525686752125943E-13, 1.199999999999984412, 38.00000000000000000 ) ) ;
#104 = UNCERTAINTY_MEASURE_WITH_UNIT (LENGTH_MEASURE( 1.000000000000000082E-05 ), #335, 'distance_accuracy_value', 'NONE');
#105 = DIRECTION ( 'NONE',  ( -3.491481338843133355E-15, 1.224646799147353207E-16, -1.000000000000000000 ) ) ;
#106 = CARTESIAN_POINT ( 'NONE',  ( 1.256933281983528008E-14, -4.408728476930471151E-16, 3.600000000000000089 ) ) ;
#107 = ADVANCED_FACE ( 'NONE', ( #255 ), #247, .T. ) ;
#108 = MECHANICAL_DESIGN_GEOMETRIC_PRESENTATION_REPRESENTATION (  '', ( #23 ), #27 ) ;
#109 = DIRECTION ( 'NONE',  ( 1.000000000000000000, 0.000000000000000000, -3.491481338843133355E-15 ) ) ;
#110 = PLANE ( 'NONE',  #342 ) ;
#111 = ORIENTED_EDGE ( 'NONE', *, *, #196, .F. ) ;
#112 = VECTOR ( 'NONE', #4, 1000.000000000000000 ) ;
#113 = AXIS2_PLACEMENT_3D ( 'NONE', #52, #126, #229 ) ;
#114 = ORIENTED_EDGE ( 'NONE', *, *, #123, .T. ) ;
#115 = VERTEX_POINT ( 'NONE', #287 ) ;
#116 = DIRECTION ( 'NONE',  ( 3.491481338843133355E-15, -0.000000000000000000, 1.000000000000000000 ) ) ;
#117 = VERTEX_POINT ( 'NONE', #24 ) ;
#118 = CONICAL_SURFACE ( 'NONE', #183, 0.7499999999999998890, 0.3450620389298190704 ) ;
#119 = EDGE_CURVE ( 'NONE', #218, #301, #156, .T. ) ;
#120 = EDGE_LOOP ( 'NONE', ( #88, #40 ) ) ;
#121 = ORIENTED_EDGE ( 'NONE', *, *, #131, .T. ) ;
#122 = CARTESIAN_POINT ( 'NONE',  ( 1.316288464743861212E-13, -4.616918432785521081E-15, 37.69999999999999574 ) ) ;
#123 = EDGE_CURVE ( 'NONE', #161, #92, #12, .T. ) ;
#124 = CARTESIAN_POINT ( 'NONE',  ( 7.574168939092707057E-14, 1.499999999999991118, 37.69999999999999574 ) ) ;
#125 =( GEOMETRIC_REPRESENTATION_CONTEXT ( 3 ) GLOBAL_UNCERTAINTY_ASSIGNED_CONTEXT ( ( #264 ) ) GLOBAL_UNIT_ASSIGNED_CONTEXT ( ( #152, #33, #343 ) ) REPRESENTATION_CONTEXT ( 'NONE', 'WORKASPACE' ) );
#126 = DIRECTION ( 'NONE',  ( -3.491481338843133355E-15, 1.224646799147353207E-16, -1.000000000000000000 ) ) ;
#127 = LINE ( 'NONE', #70, #290 ) ;
#128 = SURFACE_SIDE_STYLE ('',( #235 ) ) ;
#129 = FILL_AREA_STYLE ('',( #257 ) ) ;
#130 = FILL_AREA_STYLE_COLOUR ( '', #172 ) ;
#131 = EDGE_CURVE ( 'NONE', #117, #161, #225, .T. ) ;
#132 = CARTESIAN_POINT ( 'NONE',  ( 7.592538641079916067E-14, -1.499999999999996669, 5.686564062818848519 ) ) ;
#133 = FACE_OUTER_BOUND ( 'NONE', #224, .T. ) ;
#134 = CIRCLE ( 'NONE', #36, 1.499999999999995781 ) ;
#135 = ORIENTED_EDGE ( 'NONE', *, *, #325, .T. ) ;
#136 = CIRCLE ( 'NONE', #185, 1.499999999999996003 ) ;
#137 = ORIENTED_EDGE ( 'NONE', *, *, #307, .F. ) ;
#138 = VERTEX_POINT ( 'NONE', #202 ) ;
#139 = EDGE_CURVE ( 'NONE', #189, #165, #332, .T. ) ;
#140 = LINE ( 'NONE', #236, #142 ) ;
#141 = EDGE_LOOP ( 'NONE', ( #20, #121, #276, #222 ) ) ;
#142 = VECTOR ( 'NONE', #292, 1000.000000000000114 ) ;
#143 = LINE ( 'NONE', #89, #112 ) ;
#144 = ADVANCED_FACE ( 'NONE', ( #252 ), #331, .T. ) ;
#145 = PRESENTATION_STYLE_ASSIGNMENT (( #197 ) ) ;
#146 = DIRECTION ( 'NONE',  ( 3.491481338843133355E-15, -0.000000000000000000, 1.000000000000000000 ) ) ;
#147 = CARTESIAN_POINT ( 'NONE',  ( 1.318125434942582113E-13, -1.500000000000000222, 37.69999999999999574 ) ) ;
#148 = AXIS2_PLACEMENT_3D ( 'NONE', #98, #101, #228 ) ;
#149 = FILL_AREA_STYLE_COLOUR ( '', #50 ) ;
#150 = CARTESIAN_POINT ( 'NONE',  ( 1.621193256365164371E-14, -0.7500000000000003331, 3.600000000000000089 ) ) ;
#151 = VECTOR ( 'NONE', #268, 1000.000000000000000 ) ;
#152 =( LENGTH_UNIT ( ) NAMED_UNIT ( * ) SI_UNIT ( .MILLI., .METRE. ) );
#153 = EDGE_CURVE ( 'NONE', #210, #92, #95, .T. ) ;
#154 = CARTESIAN_POINT ( 'NONE',  ( 1.316288464743861212E-13, 1.499999999999991118, 37.69999999999999574 ) ) ;
#155 = STYLED_ITEM ( 'NONE', ( #145 ), #64 ) ;
#156 = CIRCLE ( 'NONE', #113, 1.499999999999996003 ) ;
#157 = DIRECTION ( 'NONE',  ( 3.491481338843133355E-15, -0.000000000000000000, 1.000000000000000000 ) ) ;
#158 = CARTESIAN_POINT ( 'NONE',  ( 0.7500000000000121014, 0.000000000000000000, 3.599999999999997424 ) ) ;
#159 = CARTESIAN_POINT ( 'NONE',  ( 0.7500000000000122125, 0.000000000000000000, 3.599999999999997424 ) ) ;
#160 = ADVANCED_FACE ( 'NONE', ( #341 ), #289, .F. ) ;
#161 = VERTEX_POINT ( 'NONE', #26 ) ;
#162 = DIRECTION ( 'NONE',  ( 0.000000000000000000, 0.000000000000000000, 1.000000000000000000 ) ) ;
#163 = ORIENTED_EDGE ( 'NONE', *, *, #119, .F. ) ;
#164 = MECHANICAL_DESIGN_GEOMETRIC_PRESENTATION_REPRESENTATION (  '', ( #311 ), #61 ) ;
#165 = VERTEX_POINT ( 'NONE', #150 ) ;
#166 = DIRECTION ( 'NONE',  ( 0.000000000000000000, -1.000000000000000000, 0.000000000000000000 ) ) ;
#167 = ORIENTED_EDGE ( 'NONE', *, *, #307, .T. ) ;
#168 = MANIFOLD_SOLID_BREP ( 'Corps-Déplacer/Copier1[1]', #69 ) ;
#169 = DIRECTION ( 'NONE',  ( 3.491481338843133355E-15, -1.224646799147353207E-16, 1.000000000000000000 ) ) ;
#170 = EDGE_LOOP ( 'NONE', ( #94, #250, #171, #329 ) ) ;
#171 = ORIENTED_EDGE ( 'NONE', *, *, #119, .T. ) ;
#172 = COLOUR_RGB ( '',0.8980392156862745390, 0.9176470588235293713, 0.9294117647058823817 ) ;
#173 = PRODUCT_DEFINITION ( 'UNKNOWN', '', #31, #336 ) ;
#174 = AXIS2_PLACEMENT_3D ( 'NONE', #106, #270, #39 ) ;
#175 = DIRECTION ( 'NONE',  ( 4.275831445896958607E-31, 1.000000000000000000, 1.224646799147353207E-16 ) ) ;
#176 = DIRECTION ( 'NONE',  ( -3.730349362740525976E-14, -1.000000000000000000, 0.000000000000000000 ) ) ;
#177 = AXIS2_PLACEMENT_3D ( 'NONE', #321, #300, #166 ) ;
#178 = PRODUCT_RELATED_PRODUCT_CATEGORY ( 'part', '', ( #79 ) ) ;
#179 = DIRECTION ( 'NONE',  ( 1.000000000000000000, 0.000000000000000000, -3.491481338843133355E-15 ) ) ;
#180 = FACE_OUTER_BOUND ( 'NONE', #195, .T. ) ;
#181 =( NAMED_UNIT ( * ) PLANE_ANGLE_UNIT ( ) SI_UNIT ( $, .RADIAN. ) );
#182 = EDGE_CURVE ( 'NONE', #115, #298, #259, .T. ) ;
#183 = AXIS2_PLACEMENT_3D ( 'NONE', #233, #340, #32 ) ;
#184 = DIRECTION ( 'NONE',  ( -2.468850131082244833E-15, 0.7071067811865535679, -0.7071067811865415775 ) ) ;
#185 = AXIS2_PLACEMENT_3D ( 'NONE', #67, #281, #322 ) ;
#186 = DIRECTION ( 'NONE',  ( 4.275831445896958607E-31, 1.000000000000000000, 1.224646799147353207E-16 ) ) ;
#187 = CIRCLE ( 'NONE', #272, 0.7499999999999998890 ) ;
#188 = CARTESIAN_POINT ( 'NONE',  ( 1.316288464743861212E-13, -4.616918432785521081E-15, 37.69999999999999574 ) ) ;
#189 = VERTEX_POINT ( 'NONE', #54 ) ;
#190 = FACE_OUTER_BOUND ( 'NONE', #305, .T. ) ;
#191 = CYLINDRICAL_SURFACE ( 'NONE', #299, 0.7499999999999996669 ) ;
#192 = EDGE_LOOP ( 'NONE', ( #212, #209, #219, #323 ) ) ;
#193 = ORIENTED_EDGE ( 'NONE', *, *, #291, .F. ) ;
#194 = CARTESIAN_POINT ( 'NONE',  ( 0.000000000000000000, 0.000000000000000000, 0.000000000000000000 ) ) ;
#195 = EDGE_LOOP ( 'NONE', ( #274, #17, #62, #111 ) ) ;
#196 = EDGE_CURVE ( 'NONE', #138, #298, #97, .T. ) ;
#197 = SURFACE_STYLE_USAGE ( .BOTH. , #73 ) ;
#198 = PRESENTATION_LAYER_ASSIGNMENT (  '', '', ( #23 ) ) ;
#199 = DIRECTION ( 'NONE',  ( 0.000000000000000000, 1.000000000000000000, 0.000000000000000000 ) ) ;
#200 = AXIS2_PLACEMENT_3D ( 'NONE', #227, #334, #176 ) ;
#201 = DIRECTION ( 'NONE',  ( -2.382254525458695381E-15, -0.7071067811865532349, -0.7071067811865416886 ) ) ;
#202 = CARTESIAN_POINT ( 'NONE',  ( -0.7499999999999868994, 9.184850993605144740E-17, 3.600000000000002309 ) ) ;
#203 = AXIS2_PLACEMENT_3D ( 'NONE', #49, #337, #102 ) ;
#204 = CARTESIAN_POINT ( 'NONE',  ( 1.256933281983528008E-14, 0.000000000000000000, 3.600000000000000089 ) ) ;
#205 = FILL_AREA_STYLE ('',( #130 ) ) ;
#206 = ADVANCED_FACE ( 'NONE', ( #29 ), #118, .T. ) ;
#207 = APPLICATION_CONTEXT ( 'automotive_design' ) ;
#208 = CARTESIAN_POINT ( 'NONE',  ( 1.256933281983528008E-14, 0.000000000000000000, 3.600000000000000089 ) ) ;
#209 = ORIENTED_EDGE ( 'NONE', *, *, #223, .F. ) ;
#210 = VERTEX_POINT ( 'NONE', #103 ) ;
#211 = CIRCLE ( 'NONE', #177, 1.199999999999989075 ) ;
#212 = ORIENTED_EDGE ( 'NONE', *, *, #131, .F. ) ;
#213 = DIRECTION ( 'NONE',  ( 1.000000000000000000, 0.000000000000000000, -3.469446951953615767E-15 ) ) ;
#214 = DIRECTION ( 'NONE',  ( 0.000000000000000000, 1.000000000000000000, 0.000000000000000000 ) ) ;
#215 = CONICAL_SURFACE ( 'NONE', #262, 1.499999999999995781, 0.7853981633974566057 ) ;
#216 = EDGE_CURVE ( 'NONE', #161, #301, #302, .T. ) ;
#217 = AXIS2_PLACEMENT_3D ( 'NONE', #47, #282, #179 ) ;
#218 = VERTEX_POINT ( 'NONE', #34 ) ;
#219 = ORIENTED_EDGE ( 'NONE', *, *, #153, .T. ) ;
#220 = DIRECTION ( 'NONE',  ( 1.000000000000000000, 0.000000000000000000, -3.469446951953616950E-15 ) ) ;
#221 = APPLICATION_PROTOCOL_DEFINITION ( 'draft international standard', 'automotive_design', 1998, #207 ) ;
#222 = ORIENTED_EDGE ( 'NONE', *, *, #153, .F. ) ;
#223 = EDGE_CURVE ( 'NONE', #210, #117, #327, .T. ) ;
#224 = EDGE_LOOP ( 'NONE', ( #238, #248 ) ) ;
#225 = LINE ( 'NONE', #147, #267 ) ;
#226 = PRODUCT_DEFINITION_SHAPE ( 'NONE', 'NONE',  #173 ) ;
#227 = CARTESIAN_POINT ( 'NONE',  ( 1.316288464743861212E-13, -4.616918432785521081E-15, 37.69999999999999574 ) ) ;
#228 = DIRECTION ( 'NONE',  ( 0.000000000000000000, 1.000000000000000000, 0.000000000000000000 ) ) ;
#229 = DIRECTION ( 'NONE',  ( 0.000000000000000000, 1.000000000000000000, 0.000000000000000000 ) ) ;
#230 = ADVANCED_FACE ( 'NONE', ( #245 ), #110, .F. ) ;
#231 =( LENGTH_UNIT ( ) NAMED_UNIT ( * ) SI_UNIT ( .MILLI., .METRE. ) );
#232 = SURFACE_STYLE_FILL_AREA ( #129 ) ;
#233 = CARTESIAN_POINT ( 'NONE',  ( 1.256933281983528008E-14, -4.408728476930471151E-16, 3.600000000000000089 ) ) ;
#234 = CARTESIAN_POINT ( 'NONE',  ( 0.000000000000000000, 0.000000000000000000, 0.000000000000000000 ) ) ;
#235 = SURFACE_STYLE_FILL_AREA ( #205 ) ;
#236 = CARTESIAN_POINT ( 'NONE',  ( 1.266118132977133144E-14, 0.7499999999999994449, 3.600000000000000089 ) ) ;
#237 = DIRECTION ( 'NONE',  ( -3.491481338843133355E-15, 0.000000000000000000, -1.000000000000000000 ) ) ;
#238 = ORIENTED_EDGE ( 'NONE', *, *, #223, .T. ) ;
#239 = AXIS2_PLACEMENT_3D ( 'NONE', #261, #237, #55 ) ;
#240 = CARTESIAN_POINT ( 'NONE',  ( -0.7499999999999998890, 9.184850993605224858E-17, 2.618611004132349622E-15 ) ) ;
#241 = ADVANCED_FACE ( 'NONE', ( #269 ), #317, .T. ) ;
#242 = EDGE_LOOP ( 'NONE', ( #66, #318, #324, #3 ) ) ;
#243 = LINE ( 'NONE', #2, #80 ) ;
#244 = ORIENTED_EDGE ( 'NONE', *, *, #83, .F. ) ;
#245 = FACE_OUTER_BOUND ( 'NONE', #86, .T. ) ;
#246 = CARTESIAN_POINT ( 'NONE',  ( 1.316288464743861212E-13, -4.616918432785521081E-15, 37.69999999999999574 ) ) ;
#247 = CONICAL_SURFACE ( 'NONE', #263, 1.499999999999995781, 0.7853981633974566057 ) ;
#248 = ORIENTED_EDGE ( 'NONE', *, *, #283, .T. ) ;
#249 = ORIENTED_EDGE ( 'NONE', *, *, #216, .T. ) ;
#250 = ORIENTED_EDGE ( 'NONE', *, *, #294, .T. ) ;
#251 = ADVANCED_BREP_SHAPE_REPRESENTATION ( '41570', ( #168, #64, #254 ), #125 ) ;
#252 = FACE_OUTER_BOUND ( 'NONE', #6, .T. ) ;
#253 = DIRECTION ( 'NONE',  ( -3.491481338843133355E-15, 1.224646799147359124E-16, -1.000000000000000000 ) ) ;
#254 = AXIS2_PLACEMENT_3D ( 'NONE', #194, #162, #15 ) ;
#255 = FACE_OUTER_BOUND ( 'NONE', #192, .T. ) ;
#256 = CLOSED_SHELL ( 'NONE', ( #266, #87, #160, #230 ) ) ;
#257 = FILL_AREA_STYLE_COLOUR ( '', #74 ) ;
#258 =( NAMED_UNIT ( * ) SI_UNIT ( $, .STERADIAN. ) SOLID_ANGLE_UNIT ( ) );
#259 = LINE ( 'NONE', #159, #151 ) ;
#260 = AXIS2_PLACEMENT_3D ( 'NONE', #275, #116, #220 ) ;
#261 = CARTESIAN_POINT ( 'NONE',  ( 1.256933281983528008E-14, 0.7499999999999994449, 3.600000000000000089 ) ) ;
#262 = AXIS2_PLACEMENT_3D ( 'NONE', #246, #35, #214 ) ;
#263 = AXIS2_PLACEMENT_3D ( 'NONE', #122, #253, #199 ) ;
#264 = UNCERTAINTY_MEASURE_WITH_UNIT (LENGTH_MEASURE( 1.000000000000000082E-05 ), #152, 'distance_accuracy_value', 'NONE');
#265 = SURFACE_STYLE_USAGE ( .BOTH. , #128 ) ;
#266 = ADVANCED_FACE ( 'NONE', ( #57 ), #191, .T. ) ;
#267 = VECTOR ( 'NONE', #201, 1000.000000000000114 ) ;
#268 = DIRECTION ( 'NONE',  ( 3.491481338843133355E-15, -0.000000000000000000, 1.000000000000000000 ) ) ;
#269 = FACE_OUTER_BOUND ( 'NONE', #242, .T. ) ;
#270 = DIRECTION ( 'NONE',  ( 3.491481338843133355E-15, -1.224646799147353207E-16, 1.000000000000000000 ) ) ;
#271 = FACE_OUTER_BOUND ( 'NONE', #141, .T. ) ;
#272 = AXIS2_PLACEMENT_3D ( 'NONE', #58, #5, #109 ) ;
#273 = VERTEX_POINT ( 'NONE', #240 ) ;
#274 = ORIENTED_EDGE ( 'NONE', *, *, #71, .F. ) ;
#275 = CARTESIAN_POINT ( 'NONE',  ( 1.256933281983528008E-14, 0.000000000000000000, 3.600000000000000089 ) ) ;
#276 = ORIENTED_EDGE ( 'NONE', *, *, #280, .F. ) ;
#277 =( NAMED_UNIT ( * ) PLANE_ANGLE_UNIT ( ) SI_UNIT ( $, .RADIAN. ) );
#278 = DIRECTION ( 'NONE',  ( 3.491481338843133355E-15, -0.000000000000000000, 1.000000000000000000 ) ) ;
#279 = DIRECTION ( 'NONE',  ( 3.491481338843133355E-15, -1.224646799147353207E-16, 1.000000000000000000 ) ) ;
#280 = EDGE_CURVE ( 'NONE', #92, #161, #134, .T. ) ;
#281 = DIRECTION ( 'NONE',  ( -3.491481338843133355E-15, 1.224646799147353207E-16, -1.000000000000000000 ) ) ;
#282 = DIRECTION ( 'NONE',  ( 3.491481338843133355E-15, -0.000000000000000000, 1.000000000000000000 ) ) ;
#283 = EDGE_CURVE ( 'NONE', #117, #210, #211, .T. ) ;
#284 = DIRECTION ( 'NONE',  ( -3.491481338843133355E-15, 1.224646799147353207E-16, -1.000000000000000000 ) ) ;
#285 = DIRECTION ( 'NONE',  ( 0.000000000000000000, 1.000000000000000000, 0.000000000000000000 ) ) ;
#286 = FILL_AREA_STYLE ('',( #149 ) ) ;
#287 = CARTESIAN_POINT ( 'NONE',  ( 0.7499999999999998890, 0.000000000000000000, -2.618611004132349622E-15 ) ) ;
#288 = AXIS2_PLACEMENT_3D ( 'NONE', #41, #169, #93 ) ;
#289 = PLANE ( 'NONE',  #239 ) ;
#290 = VECTOR ( 'NONE', #333, 1000.000000000000000 ) ;
#291 = EDGE_CURVE ( 'NONE', #298, #138, #68, .T. ) ;
#292 = DIRECTION ( 'NONE',  ( 3.327098416510788004E-15, 0.3382550599108818390, 0.9410544694355825746 ) ) ;
#293 = AXIS2_PLACEMENT_3D ( 'NONE', #208, #157, #53 ) ;
#294 = EDGE_CURVE ( 'NONE', #189, #218, #140, .T. ) ;
#295 = ORIENTED_EDGE ( 'NONE', *, *, #71, .T. ) ;
#296 = CARTESIAN_POINT ( 'NONE',  ( 1.836970198721018348E-16, -1.499999999999995781, -1.836970198721030920E-16 ) ) ;
#297 = PLANE ( 'NONE',  #99 ) ;
#298 = VERTEX_POINT ( 'NONE', #158 ) ;
#299 = AXIS2_PLACEMENT_3D ( 'NONE', #85, #278, #213 ) ;
#300 = DIRECTION ( 'NONE',  ( 3.491481338843133355E-15, -1.224646799147353207E-16, 1.000000000000000000 ) ) ;
#301 = VERTEX_POINT ( 'NONE', #132 ) ;
#302 = LINE ( 'NONE', #296, #338 ) ;
#303 = CARTESIAN_POINT ( 'NONE',  ( 1.326762908760390423E-13, -4.653657836759941941E-15, 38.00000000000000000 ) ) ;
#304 =( GEOMETRIC_REPRESENTATION_CONTEXT ( 3 ) GLOBAL_UNCERTAINTY_ASSIGNED_CONTEXT ( ( #104 ) ) GLOBAL_UNIT_ASSIGNED_CONTEXT ( ( #335, #25, #258 ) ) REPRESENTATION_CONTEXT ( 'NONE', 'WORKASPACE' ) );
#305 = EDGE_LOOP ( 'NONE', ( #60, #249, #163, #137 ) ) ;
#306 = AXIS2_PLACEMENT_3D ( 'NONE', #310, #75, #285 ) ;
#307 = EDGE_CURVE ( 'NONE', #92, #218, #243, .T. ) ;
#308 = AXIS2_PLACEMENT_3D ( 'NONE', #204, #146, #21 ) ;
#309 = APPLICATION_CONTEXT ( 'automotive_design' ) ;
#310 = CARTESIAN_POINT ( 'NONE',  ( 1.256933281983528008E-14, -4.408728476930471151E-16, 3.600000000000000089 ) ) ;
#311 = STYLED_ITEM ( 'NONE', ( #51 ), #251 ) ;
#312 = CARTESIAN_POINT ( 'NONE',  ( 1.256933281983528008E-14, 0.7499999999999994449, 3.600000000000000089 ) ) ;
#313 = PRESENTATION_LAYER_ASSIGNMENT (  '', '', ( #311 ) ) ;
#314 = UNCERTAINTY_MEASURE_WITH_UNIT (LENGTH_MEASURE( 1.000000000000000082E-05 ), #231, 'distance_accuracy_value', 'NONE');
#315 = CYLINDRICAL_SURFACE ( 'NONE', #84, 1.499999999999995781 ) ;
#316 = PRESENTATION_LAYER_ASSIGNMENT (  '', '', ( #155 ) ) ;
#317 = CONICAL_SURFACE ( 'NONE', #174, 0.7499999999999998890, 0.3450620389298190704 ) ;
#318 = ORIENTED_EDGE ( 'NONE', *, *, #77, .F. ) ;
#319 = VECTOR ( 'NONE', #184, 1000.000000000000000 ) ;
#320 = ORIENTED_EDGE ( 'NONE', *, *, #139, .T. ) ;
#321 = CARTESIAN_POINT ( 'NONE',  ( 1.326762908760390423E-13, -4.653657836759941941E-15, 38.00000000000000000 ) ) ;
#322 = DIRECTION ( 'NONE',  ( 0.000000000000000000, 1.000000000000000000, 0.000000000000000000 ) ) ;
#323 = ORIENTED_EDGE ( 'NONE', *, *, #123, .F. ) ;
#324 = ORIENTED_EDGE ( 'NONE', *, *, #43, .T. ) ;
#325 = EDGE_CURVE ( 'NONE', #115, #273, #187, .T. ) ;
#326 = APPLICATION_PROTOCOL_DEFINITION ( 'draft international standard', 'automotive_design', 1998, #309 ) ;
#327 = CIRCLE ( 'NONE', #288, 1.199999999999989075 ) ;
#328 = EDGE_LOOP ( 'NONE', ( #135, #295, #193, #18 ) ) ;
#329 = ORIENTED_EDGE ( 'NONE', *, *, #43, .F. ) ;
#330 = ADVANCED_FACE ( 'NONE', ( #190 ), #315, .T. ) ;
#331 = CYLINDRICAL_SURFACE ( 'NONE', #203, 1.499999999999995781 ) ;
#332 = CIRCLE ( 'NONE', #306, 0.7499999999999998890 ) ;
#333 = DIRECTION ( 'NONE',  ( 3.491481338843133355E-15, -0.000000000000000000, 1.000000000000000000 ) ) ;
#334 = DIRECTION ( 'NONE',  ( -3.491481338843133355E-15, 1.224646799147359124E-16, -1.000000000000000000 ) ) ;
#335 =( LENGTH_UNIT ( ) NAMED_UNIT ( * ) SI_UNIT ( .MILLI., .METRE. ) );
#336 = PRODUCT_DEFINITION_CONTEXT ( 'detailed design', #309, 'design' ) ;
#337 = DIRECTION ( 'NONE',  ( -3.491481338843133355E-15, 1.224646799147353207E-16, -1.000000000000000000 ) ) ;
#338 = VECTOR ( 'NONE', #63, 1000.000000000000000 ) ;
#339 = SURFACE_STYLE_USAGE ( .BOTH. , #72 ) ;
#340 = DIRECTION ( 'NONE',  ( 3.491481338843133355E-15, -1.224646799147353207E-16, 1.000000000000000000 ) ) ;
#341 = FACE_OUTER_BOUND ( 'NONE', #120, .T. ) ;
#342 = AXIS2_PLACEMENT_3D ( 'NONE', #37, #16, #19 ) ;
#343 =( NAMED_UNIT ( * ) SI_UNIT ( $, .STERADIAN. ) SOLID_ANGLE_UNIT ( ) );
ENDSEC;
END-ISO-10303-21;
