ISO-10303-21;
HEADER;
FILE_DESCRIPTION (( 'STEP AP214' ),
    '1' );
FILE_NAME ('41569.step',
    '2024-04-04T09:32:54',
    ( '' ),
    ( '' ),
    'SwSTEP 2.0',
    'SolidWorks 2022',
    '' );
FILE_SCHEMA (( 'AUTOMOTIVE_DESIGN' ));
ENDSEC;

DATA;
#1 = CIRCLE ( 'NONE', #301, 1.499999999999995781 ) ;
#2 = COLOUR_RGB ( '',0.8980392156862745390, 0.9176470588235293713, 0.9294117647058823817 ) ;
#3 = FACE_OUTER_BOUND ( 'NONE', #336, .T. ) ;
#4 = CARTESIAN_POINT ( 'NONE',  ( 1.845793977193075083E-14, -6.474173758018531051E-16, 5.286564062818849941 ) ) ;
#5 = EDGE_LOOP ( 'NONE', ( #291, #210 ) ) ;
#6 = DIRECTION ( 'NONE',  ( 3.491481338843133355E-15, -0.000000000000000000, 1.000000000000000000 ) ) ;
#7 = ORIENTED_EDGE ( 'NONE', *, *, #269, .F. ) ;
#8 = EDGE_CURVE ( 'NONE', #324, #54, #235, .T. ) ;
#9 = FACE_OUTER_BOUND ( 'NONE', #287, .T. ) ;
#10 = AXIS2_PLACEMENT_3D ( 'NONE', #275, #234, #67 ) ;
#11 = ORIENTED_EDGE ( 'NONE', *, *, #214, .T. ) ;
#12 = DIRECTION ( 'NONE',  ( 0.000000000000000000, 1.000000000000000000, 0.000000000000000000 ) ) ;
#13 = VERTEX_POINT ( 'NONE', #91 ) ;
#14 = MECHANICAL_DESIGN_GEOMETRIC_PRESENTATION_REPRESENTATION (  '', ( #49 ), #42 ) ;
#15 = DIRECTION ( 'NONE',  ( 0.000000000000000000, 1.000000000000000000, 0.000000000000000000 ) ) ;
#16 = ORIENTED_EDGE ( 'NONE', *, *, #165, .T. ) ;
#17 = CARTESIAN_POINT ( 'NONE',  ( 0.000000000000000000, 0.000000000000000000, 0.000000000000000000 ) ) ;
#18 = LINE ( 'NONE', #303, #133 ) ;
#19 = ADVANCED_FACE ( 'NONE', ( #335 ), #286, .T. ) ;
#20 = VECTOR ( 'NONE', #325, 1000.000000000000114 ) ;
#21 = CIRCLE ( 'NONE', #184, 0.7499999999999998890 ) ;
#22 = EDGE_CURVE ( 'NONE', #58, #145, #34, .T. ) ;
#23 = COLOUR_RGB ( '',0.8980392156862745390, 0.9176470588235293713, 0.9294117647058823817 ) ;
#24 = AXIS2_PLACEMENT_3D ( 'NONE', #211, #68, #337 ) ;
#25 = ADVANCED_FACE ( 'NONE', ( #121 ), #205, .T. ) ;
#26 = EDGE_LOOP ( 'NONE', ( #115, #328, #135, #194 ) ) ;
#27 = CARTESIAN_POINT ( 'NONE',  ( 1.318125434942581860E-13, -1.500000000000000222, 37.69999999999998863 ) ) ;
#28 = AXIS2_PLACEMENT_3D ( 'NONE', #4, #86, #12 ) ;
#29 = FACE_OUTER_BOUND ( 'NONE', #248, .T. ) ;
#30 = DIRECTION ( 'NONE',  ( 1.000000000000000000, 0.000000000000000000, -3.491481338843133355E-15 ) ) ;
#31 = ADVANCED_FACE ( 'NONE', ( #117 ), #197, .T. ) ;
#32 = FACE_OUTER_BOUND ( 'NONE', #5, .T. ) ;
#33 = CLOSED_SHELL ( 'NONE', ( #113, #31, #261, #25, #48, #237, #19, #316 ) ) ;
#34 = CIRCLE ( 'NONE', #97, 0.7499999999999998890 ) ;
#35 = CARTESIAN_POINT ( 'NONE',  ( 1.316288464743860959E-13, -4.616918432785520292E-15, 37.69999999999998863 ) ) ;
#36 = FACE_OUTER_BOUND ( 'NONE', #130, .T. ) ;
#37 =( NAMED_UNIT ( * ) PLANE_ANGLE_UNIT ( ) SI_UNIT ( $, .RADIAN. ) );
#38 = SURFACE_STYLE_USAGE ( .BOTH. , #123 ) ;
#39 = FILL_AREA_STYLE_COLOUR ( '', #2 ) ;
#40 = DIRECTION ( 'NONE',  ( 3.491481338843133355E-15, -1.224646799147353207E-16, 1.000000000000000000 ) ) ;
#41 = FACE_OUTER_BOUND ( 'NONE', #228, .T. ) ;
#42 =( GEOMETRIC_REPRESENTATION_CONTEXT ( 3 ) GLOBAL_UNCERTAINTY_ASSIGNED_CONTEXT ( ( #114 ) ) GLOBAL_UNIT_ASSIGNED_CONTEXT ( ( #282, #160, #126 ) ) REPRESENTATION_CONTEXT ( 'NONE', 'WORKASPACE' ) );
#43 = ORIENTED_EDGE ( 'NONE', *, *, #57, .F. ) ;
#44 = CARTESIAN_POINT ( 'NONE',  ( 1.326762908760390423E-13, -4.653657836759941941E-15, 38.00000000000000000 ) ) ;
#45 = ADVANCED_BREP_SHAPE_REPRESENTATION ( '41569', ( #101, #332, #213 ), #154 ) ;
#46 = PRODUCT ( '41569', '41569', '', ( #98 ) ) ;
#47 = APPLICATION_PROTOCOL_DEFINITION ( 'draft international standard', 'automotive_design', 1998, #216 ) ;
#48 = ADVANCED_FACE ( 'NONE', ( #36 ), #151, .T. ) ;
#49 = STYLED_ITEM ( 'NONE', ( #148 ), #101 ) ;
#50 = ORIENTED_EDGE ( 'NONE', *, *, #62, .T. ) ;
#51 = CARTESIAN_POINT ( 'NONE',  ( 1.316288464743860959E-13, -4.616918432785520292E-15, 37.69999999999998863 ) ) ;
#52 = CYLINDRICAL_SURFACE ( 'NONE', #53, 1.499999999999995781 ) ;
#53 = AXIS2_PLACEMENT_3D ( 'NONE', #221, #318, #273 ) ;
#54 = VERTEX_POINT ( 'NONE', #181 ) ;
#55 = COLOUR_RGB ( '',0.8980392156862745390, 0.9176470588235293713, 0.9294117647058823817 ) ;
#56 = PLANE ( 'NONE',  #293 ) ;
#57 = EDGE_CURVE ( 'NONE', #54, #108, #244, .T. ) ;
#58 = VERTEX_POINT ( 'NONE', #182 ) ;
#59 = FACE_OUTER_BOUND ( 'NONE', #266, .T. ) ;
#60 = ORIENTED_EDGE ( 'NONE', *, *, #326, .F. ) ;
#61 = CARTESIAN_POINT ( 'NONE',  ( 1.117274028429802674E-14, 0.000000000000000000, 3.200000000000000178 ) ) ;
#62 = EDGE_CURVE ( 'NONE', #252, #104, #18, .T. ) ;
#63 = DIRECTION ( 'NONE',  ( 1.000000000000000000, 0.000000000000000000, -3.491481338843133355E-15 ) ) ;
#64 = DIRECTION ( 'NONE',  ( -3.491481338843133355E-15, 1.224646799147353207E-16, -1.000000000000000000 ) ) ;
#65 = FILL_AREA_STYLE_COLOUR ( '', #23 ) ;
#66 = CARTESIAN_POINT ( 'NONE',  ( 1.326762908760390423E-13, -4.653657836759941941E-15, 38.00000000000000000 ) ) ;
#67 = DIRECTION ( 'NONE',  ( 4.275831445896958607E-31, 1.000000000000000000, 1.224646799147353207E-16 ) ) ;
#68 = DIRECTION ( 'NONE',  ( 3.491481338843133355E-15, -0.000000000000000000, 1.000000000000000000 ) ) ;
#69 = PRODUCT_DEFINITION_FORMATION_WITH_SPECIFIED_SOURCE ( 'ANY', '', #46, .NOT_KNOWN. ) ;
#70 = CARTESIAN_POINT ( 'NONE',  ( 1.316288464743860959E-13, -4.616918432785520292E-15, 37.69999999999998863 ) ) ;
#71 = DIRECTION ( 'NONE',  ( 0.000000000000000000, 1.000000000000000000, 0.000000000000000000 ) ) ;
#72 = CIRCLE ( 'NONE', #28, 1.499999999999996003 ) ;
#73 = ORIENTED_EDGE ( 'NONE', *, *, #230, .T. ) ;
#74 = DIRECTION ( 'NONE',  ( -3.491481338843133355E-15, 1.224646799147353207E-16, -1.000000000000000000 ) ) ;
#75 =( NAMED_UNIT ( * ) PLANE_ANGLE_UNIT ( ) SI_UNIT ( $, .RADIAN. ) );
#76 = PRESENTATION_STYLE_ASSIGNMENT (( #241 ) ) ;
#77 = CIRCLE ( 'NONE', #253, 0.7499999999999994449 ) ;
#78 = AXIS2_PLACEMENT_3D ( 'NONE', #281, #255, #71 ) ;
#79 = CARTESIAN_POINT ( 'NONE',  ( 7.504339312315843128E-14, 1.499999999999991118, 37.69999999999998863 ) ) ;
#80 = ORIENTED_EDGE ( 'NONE', *, *, #8, .T. ) ;
#81 = CARTESIAN_POINT ( 'NONE',  ( 1.321525686752125943E-13, 1.199999999999984412, 38.00000000000000000 ) ) ;
#82 = CARTESIAN_POINT ( 'NONE',  ( 1.117274028429802674E-14, 0.000000000000000000, 3.200000000000000178 ) ) ;
#83 = AXIS2_PLACEMENT_3D ( 'NONE', #82, #288, #112 ) ;
#84 = DIRECTION ( 'NONE',  ( -1.000000000000000000, 0.000000000000000000, 3.491481338843133355E-15 ) ) ;
#85 = ORIENTED_EDGE ( 'NONE', *, *, #94, .T. ) ;
#86 = DIRECTION ( 'NONE',  ( -3.491481338843133355E-15, 1.224646799147353207E-16, -1.000000000000000000 ) ) ;
#87 = EDGE_LOOP ( 'NONE', ( #169, #60, #73, #299 ) ) ;
#88 = LINE ( 'NONE', #304, #331 ) ;
#89 = DIRECTION ( 'NONE',  ( -3.491481338843133355E-15, 1.224646799147353207E-16, -1.000000000000000000 ) ) ;
#90 = AXIS2_PLACEMENT_3D ( 'NONE', #155, #185, #15 ) ;
#91 = CARTESIAN_POINT ( 'NONE',  ( 1.481534002811438721E-14, -0.7500000000000003331, 3.200000000000000178 ) ) ;
#92 = DIRECTION ( 'NONE',  ( 3.491481338843133355E-15, -0.000000000000000000, 1.000000000000000000 ) ) ;
#93 = DIRECTION ( 'NONE',  ( -2.468850131082272838E-15, 0.7071067811865453523, -0.7071067811865496822 ) ) ;
#94 = EDGE_CURVE ( 'NONE', #104, #324, #1, .T. ) ;
#95 = EDGE_LOOP ( 'NONE', ( #327, #317, #11, #319 ) ) ;
#96 =( LENGTH_UNIT ( ) NAMED_UNIT ( * ) SI_UNIT ( .MILLI., .METRE. ) );
#97 = AXIS2_PLACEMENT_3D ( 'NONE', #180, #207, #63 ) ;
#98 = PRODUCT_CONTEXT ( 'NONE', #216, 'mechanical' ) ;
#99 = AXIS2_PLACEMENT_3D ( 'NONE', #35, #107, #174 ) ;
#100 = MECHANICAL_DESIGN_GEOMETRIC_PRESENTATION_REPRESENTATION (  '', ( #219 ), #163 ) ;
#101 = MANIFOLD_SOLID_BREP ( 'Corps-Déplacer/Copier1[1]', #33 ) ;
#102 = EDGE_CURVE ( 'NONE', #308, #13, #142, .T. ) ;
#103 = VECTOR ( 'NONE', #89, 1000.000000000000000 ) ;
#104 = VERTEX_POINT ( 'NONE', #79 ) ;
#105 = CARTESIAN_POINT ( 'NONE',  ( -0.7499999999999885647, 9.184850993605145972E-17, 3.200000000000002842 ) ) ;
#106 = ORIENTED_EDGE ( 'NONE', *, *, #214, .F. ) ;
#107 = DIRECTION ( 'NONE',  ( -3.491481338843133355E-15, 1.224646799147356658E-16, -1.000000000000000000 ) ) ;
#108 = VERTEX_POINT ( 'NONE', #201 ) ;
#109 = DIRECTION ( 'NONE',  ( 1.000000000000000000, 0.000000000000000000, -3.469446951953616950E-15 ) ) ;
#110 = VECTOR ( 'NONE', #136, 1000.000000000000000 ) ;
#111 = ORIENTED_EDGE ( 'NONE', *, *, #199, .T. ) ;
#112 = DIRECTION ( 'NONE',  ( 1.000000000000000000, 0.000000000000000000, -3.469446951953616950E-15 ) ) ;
#113 = ADVANCED_FACE ( 'NONE', ( #9 ), #162, .T. ) ;
#114 = UNCERTAINTY_MEASURE_WITH_UNIT (LENGTH_MEASURE( 1.000000000000000082E-05 ), #282, 'distance_accuracy_value', 'NONE');
#115 = ORIENTED_EDGE ( 'NONE', *, *, #217, .F. ) ;
#116 = DIRECTION ( 'NONE',  ( 3.491481338843133355E-15, -0.000000000000000000, 1.000000000000000000 ) ) ;
#117 = FACE_OUTER_BOUND ( 'NONE', #95, .T. ) ;
#118 = EDGE_CURVE ( 'NONE', #279, #340, #283, .T. ) ;
#119 = CARTESIAN_POINT ( 'NONE',  ( 1.117274028429802674E-14, -3.918869757271530460E-16, 3.200000000000000178 ) ) ;
#120 = DIRECTION ( 'NONE',  ( 0.000000000000000000, 1.000000000000000000, 0.000000000000000000 ) ) ;
#121 = FACE_OUTER_BOUND ( 'NONE', #200, .T. ) ;
#122 = DIRECTION ( 'NONE',  ( 3.491481338843133355E-15, -1.224646799147353207E-16, 1.000000000000000000 ) ) ;
#123 = SURFACE_SIDE_STYLE ('',( #259 ) ) ;
#124 = EDGE_CURVE ( 'NONE', #340, #279, #77, .T. ) ;
#125 = CONICAL_SURFACE ( 'NONE', #78, 1.499999999999995781, 0.7853981633974450594 ) ;
#126 =( NAMED_UNIT ( * ) SI_UNIT ( $, .STERADIAN. ) SOLID_ANGLE_UNIT ( ) );
#127 = APPLICATION_PROTOCOL_DEFINITION ( 'draft international standard', 'automotive_design', 1998, #149 ) ;
#128 = AXIS2_PLACEMENT_3D ( 'NONE', #209, #40, #202 ) ;
#129 = ADVANCED_FACE ( 'NONE', ( #59 ), #196, .F. ) ;
#130 = EDGE_LOOP ( 'NONE', ( #226, #140 ) ) ;
#131 = CARTESIAN_POINT ( 'NONE',  ( 1.117274028429802674E-14, -0.7500000000000003331, 3.200000000000000178 ) ) ;
#132 = PRODUCT_RELATED_PRODUCT_CATEGORY ( 'part', '', ( #46 ) ) ;
#133 = VECTOR ( 'NONE', #93, 1000.000000000000000 ) ;
#134 = STYLED_ITEM ( 'NONE', ( #76 ), #45 ) ;
#135 = ORIENTED_EDGE ( 'NONE', *, *, #269, .T. ) ;
#136 = DIRECTION ( 'NONE',  ( -3.491481338843133355E-15, 1.224646799147353207E-16, -1.000000000000000000 ) ) ;
#137 = ORIENTED_EDGE ( 'NONE', *, *, #124, .F. ) ;
#138 = LINE ( 'NONE', #246, #263 ) ;
#139 = UNCERTAINTY_MEASURE_WITH_UNIT (LENGTH_MEASURE( 1.000000000000000082E-05 ), #284, 'distance_accuracy_value', 'NONE');
#140 = ORIENTED_EDGE ( 'NONE', *, *, #307, .T. ) ;
#141 = DIRECTION ( 'NONE',  ( -3.491481338843133355E-15, 1.224646799147353207E-16, -1.000000000000000000 ) ) ;
#142 = CIRCLE ( 'NONE', #330, 0.7499999999999998890 ) ;
#143 = ORIENTED_EDGE ( 'NONE', *, *, #192, .T. ) ;
#144 = LINE ( 'NONE', #105, #218 ) ;
#145 = VERTEX_POINT ( 'NONE', #170 ) ;
#146 = CARTESIAN_POINT ( 'NONE',  ( 1.323178959930974653E-13, -1.199999999999993516, 38.00000000000000000 ) ) ;
#147 =( GEOMETRIC_REPRESENTATION_CONTEXT ( 3 ) GLOBAL_UNCERTAINTY_ASSIGNED_CONTEXT ( ( #139 ) ) GLOBAL_UNIT_ASSIGNED_CONTEXT ( ( #284, #75, #262 ) ) REPRESENTATION_CONTEXT ( 'NONE', 'WORKASPACE' ) );
#148 = PRESENTATION_STYLE_ASSIGNMENT (( #38 ) ) ;
#149 = APPLICATION_CONTEXT ( 'automotive_design' ) ;
#150 = EDGE_CURVE ( 'NONE', #252, #297, #177, .T. ) ;
#151 = PLANE ( 'NONE',  #166 ) ;
#152 = AXIS2_PLACEMENT_3D ( 'NONE', #225, #141, #223 ) ;
#153 = SURFACE_STYLE_FILL_AREA ( #208 ) ;
#154 =( GEOMETRIC_REPRESENTATION_CONTEXT ( 3 ) GLOBAL_UNCERTAINTY_ASSIGNED_CONTEXT ( ( #256 ) ) GLOBAL_UNIT_ASSIGNED_CONTEXT ( ( #96, #183, #159 ) ) REPRESENTATION_CONTEXT ( 'NONE', 'WORKASPACE' ) );
#155 = CARTESIAN_POINT ( 'NONE',  ( 1.845793977193075083E-14, -6.474173758018531051E-16, 5.286564062818849941 ) ) ;
#156 = DIRECTION ( 'NONE',  ( 0.000000000000000000, -1.000000000000000000, 0.000000000000000000 ) ) ;
#157 = DIRECTION ( 'NONE',  ( 3.819167204710539130E-14, -1.000000000000000000, 0.000000000000000000 ) ) ;
#158 = PRODUCT_DEFINITION ( 'UNKNOWN', '', #69, #296 ) ;
#159 =( NAMED_UNIT ( * ) SI_UNIT ( $, .STERADIAN. ) SOLID_ANGLE_UNIT ( ) );
#160 =( NAMED_UNIT ( * ) PLANE_ANGLE_UNIT ( ) SI_UNIT ( $, .RADIAN. ) );
#161 = CARTESIAN_POINT ( 'NONE',  ( 0.000000000000000000, 0.000000000000000000, 0.000000000000000000 ) ) ;
#162 = CONICAL_SURFACE ( 'NONE', #339, 1.499999999999995781, 0.7853981633974450594 ) ;
#163 =( GEOMETRIC_REPRESENTATION_CONTEXT ( 3 ) GLOBAL_UNCERTAINTY_ASSIGNED_CONTEXT ( ( #238 ) ) GLOBAL_UNIT_ASSIGNED_CONTEXT ( ( #206, #37, #251 ) ) REPRESENTATION_CONTEXT ( 'NONE', 'WORKASPACE' ) );
#164 = SHAPE_DEFINITION_REPRESENTATION ( #315, #45 ) ;
#165 = EDGE_CURVE ( 'NONE', #297, #324, #267, .T. ) ;
#166 = AXIS2_PLACEMENT_3D ( 'NONE', #44, #254, #231 ) ;
#167 = ORIENTED_EDGE ( 'NONE', *, *, #150, .F. ) ;
#168 = DIRECTION ( 'NONE',  ( 0.000000000000000000, -1.000000000000000000, 0.000000000000000000 ) ) ;
#169 = ORIENTED_EDGE ( 'NONE', *, *, #285, .F. ) ;
#170 = CARTESIAN_POINT ( 'NONE',  ( 0.7499999999999998890, 0.000000000000000000, -2.618611004132349622E-15 ) ) ;
#171 = ORIENTED_EDGE ( 'NONE', *, *, #192, .F. ) ;
#172 = CARTESIAN_POINT ( 'NONE',  ( 2.137915722948480453E-32, 0.7499999999999998890, 6.123233995736769426E-18 ) ) ;
#173 = EDGE_LOOP ( 'NONE', ( #85, #80, #106, #220 ) ) ;
#174 = DIRECTION ( 'NONE',  ( -3.730349362740525976E-14, -1.000000000000000000, 0.000000000000000000 ) ) ;
#175 = ORIENTED_EDGE ( 'NONE', *, *, #313, .T. ) ;
#176 = DIRECTION ( 'NONE',  ( -3.491481338843133355E-15, 1.224646799147356658E-16, -1.000000000000000000 ) ) ;
#177 = CIRCLE ( 'NONE', #322, 1.199999999999989075 ) ;
#178 = ORIENTED_EDGE ( 'NONE', *, *, #102, .T. ) ;
#179 = PRESENTATION_STYLE_ASSIGNMENT (( #258 ) ) ;
#180 = CARTESIAN_POINT ( 'NONE',  ( 0.000000000000000000, 0.000000000000000000, 0.000000000000000000 ) ) ;
#181 = CARTESIAN_POINT ( 'NONE',  ( 7.522709014303053400E-14, -1.499999999999996669, 5.286564062818849941 ) ) ;
#182 = CARTESIAN_POINT ( 'NONE',  ( -0.7500000000000000000, 9.184850993605216230E-17, 2.618611004132350016E-15 ) ) ;
#183 =( NAMED_UNIT ( * ) PLANE_ANGLE_UNIT ( ) SI_UNIT ( $, .RADIAN. ) );
#184 = AXIS2_PLACEMENT_3D ( 'NONE', #277, #64, #120 ) ;
#185 = DIRECTION ( 'NONE',  ( -3.491481338843133355E-15, 1.224646799147353207E-16, -1.000000000000000000 ) ) ;
#186 = CYLINDRICAL_SURFACE ( 'NONE', #24, 0.7499999999999996669 ) ;
#187 = FILL_AREA_STYLE_COLOUR ( '', #55 ) ;
#188 = AXIS2_PLACEMENT_3D ( 'NONE', #249, #290, #245 ) ;
#189 = PRESENTATION_LAYER_ASSIGNMENT (  '', '', ( #134 ) ) ;
#190 = DIRECTION ( 'NONE',  ( 0.000000000000000000, 0.000000000000000000, 1.000000000000000000 ) ) ;
#191 = PRESENTATION_LAYER_ASSIGNMENT (  '', '', ( #49 ) ) ;
#192 = EDGE_CURVE ( 'NONE', #324, #104, #342, .T. ) ;
#193 = CARTESIAN_POINT ( 'NONE',  ( 1.117274028429802674E-14, 0.7499999999999994449, 3.200000000000000178 ) ) ;
#194 = ORIENTED_EDGE ( 'NONE', *, *, #118, .F. ) ;
#195 = FACE_OUTER_BOUND ( 'NONE', #173, .T. ) ;
#196 = PLANE ( 'NONE',  #215 ) ;
#197 = CONICAL_SURFACE ( 'NONE', #338, 0.7499999999999998890, 0.3450620389298190149 ) ;
#198 = LINE ( 'NONE', #295, #110 ) ;
#199 = EDGE_CURVE ( 'NONE', #104, #108, #198, .T. ) ;
#200 = EDGE_LOOP ( 'NONE', ( #222, #178 ) ) ;
#201 = CARTESIAN_POINT ( 'NONE',  ( 1.845793977193075083E-14, 1.499999999999995337, 5.286564062818849941 ) ) ;
#202 = DIRECTION ( 'NONE',  ( 0.000000000000000000, -1.000000000000000000, 0.000000000000000000 ) ) ;
#203 = DIRECTION ( 'NONE',  ( 1.000000000000000000, 0.000000000000000000, -3.491481338843133355E-15 ) ) ;
#204 = ADVANCED_FACE ( 'NONE', ( #29 ), #320, .T. ) ;
#205 = PLANE ( 'NONE',  #10 ) ;
#206 =( LENGTH_UNIT ( ) NAMED_UNIT ( * ) SI_UNIT ( .MILLI., .METRE. ) );
#207 = DIRECTION ( 'NONE',  ( 3.491481338843133355E-15, -0.000000000000000000, 1.000000000000000000 ) ) ;
#208 = FILL_AREA_STYLE ('',( #39 ) ) ;
#209 = CARTESIAN_POINT ( 'NONE',  ( 1.117274028429802674E-14, -3.918869757271530460E-16, 3.200000000000000178 ) ) ;
#210 = ORIENTED_EDGE ( 'NONE', *, *, #22, .F. ) ;
#211 = CARTESIAN_POINT ( 'NONE',  ( 1.117274028429802674E-14, 0.000000000000000000, 3.200000000000000178 ) ) ;
#212 = SURFACE_SIDE_STYLE ('',( #314 ) ) ;
#213 = AXIS2_PLACEMENT_3D ( 'NONE', #161, #190, #312 ) ;
#214 = EDGE_CURVE ( 'NONE', #108, #54, #72, .T. ) ;
#215 = AXIS2_PLACEMENT_3D ( 'NONE', #193, #247, #84 ) ;
#216 = APPLICATION_CONTEXT ( 'automotive_design' ) ;
#217 = EDGE_CURVE ( 'NONE', #58, #279, #144, .T. ) ;
#218 = VECTOR ( 'NONE', #116, 1000.000000000000000 ) ;
#219 = STYLED_ITEM ( 'NONE', ( #179 ), #332 ) ;
#220 = ORIENTED_EDGE ( 'NONE', *, *, #199, .F. ) ;
#221 = CARTESIAN_POINT ( 'NONE',  ( 0.000000000000000000, 0.000000000000000000, 0.000000000000000000 ) ) ;
#222 = ORIENTED_EDGE ( 'NONE', *, *, #326, .T. ) ;
#223 = DIRECTION ( 'NONE',  ( 4.275831445896958607E-31, 1.000000000000000000, 1.224646799147353207E-16 ) ) ;
#224 = ORIENTED_EDGE ( 'NONE', *, *, #8, .F. ) ;
#225 = CARTESIAN_POINT ( 'NONE',  ( 0.000000000000000000, 0.000000000000000000, 0.000000000000000000 ) ) ;
#226 = ORIENTED_EDGE ( 'NONE', *, *, #150, .T. ) ;
#227 = CARTESIAN_POINT ( 'NONE',  ( 1.326762908760390423E-13, -4.653657836759941941E-15, 38.00000000000000000 ) ) ;
#228 = EDGE_LOOP ( 'NONE', ( #289, #167, #50, #171 ) ) ;
#229 = LINE ( 'NONE', #131, #260 ) ;
#230 = EDGE_CURVE ( 'NONE', #13, #54, #229, .T. ) ;
#231 = DIRECTION ( 'NONE',  ( -4.275831445896958607E-31, -1.000000000000000000, -1.224646799147353207E-16 ) ) ;
#232 = CLOSED_SHELL ( 'NONE', ( #204, #343, #129, #265 ) ) ;
#233 = ORIENTED_EDGE ( 'NONE', *, *, #124, .T. ) ;
#234 = DIRECTION ( 'NONE',  ( -3.491481338843133355E-15, 1.224646799147353207E-16, -1.000000000000000000 ) ) ;
#235 = LINE ( 'NONE', #239, #103 ) ;
#236 = FACE_OUTER_BOUND ( 'NONE', #26, .T. ) ;
#237 = ADVANCED_FACE ( 'NONE', ( #3 ), #52, .T. ) ;
#238 = UNCERTAINTY_MEASURE_WITH_UNIT (LENGTH_MEASURE( 1.000000000000000082E-05 ), #206, 'distance_accuracy_value', 'NONE');
#239 = CARTESIAN_POINT ( 'NONE',  ( 1.836970198721018348E-16, -1.499999999999995781, -1.836970198721030920E-16 ) ) ;
#240 = CIRCLE ( 'NONE', #294, 0.7499999999999998890 ) ;
#241 = SURFACE_STYLE_USAGE ( .BOTH. , #212 ) ;
#242 = MECHANICAL_DESIGN_GEOMETRIC_PRESENTATION_REPRESENTATION (  '', ( #134 ), #147 ) ;
#243 = DIRECTION ( 'NONE',  ( 3.285674118869261816E-15, -0.3382550599108820055, 0.9410544694355824635 ) ) ;
#244 = CIRCLE ( 'NONE', #90, 1.499999999999996003 ) ;
#245 = DIRECTION ( 'NONE',  ( 1.000000000000000000, 0.000000000000000000, -3.469446951953615767E-15 ) ) ;
#246 = CARTESIAN_POINT ( 'NONE',  ( 0.7500000000000108802, 0.000000000000000000, 3.199999999999997513 ) ) ;
#247 = DIRECTION ( 'NONE',  ( -3.491481338843133355E-15, 0.000000000000000000, -1.000000000000000000 ) ) ;
#248 = EDGE_LOOP ( 'NONE', ( #175, #333, #137, #7 ) ) ;
#249 = CARTESIAN_POINT ( 'NONE',  ( 1.117274028429802674E-14, 0.000000000000000000, 3.200000000000000178 ) ) ;
#250 = ORIENTED_EDGE ( 'NONE', *, *, #62, .F. ) ;
#251 =( NAMED_UNIT ( * ) SI_UNIT ( $, .STERADIAN. ) SOLID_ANGLE_UNIT ( ) );
#252 = VERTEX_POINT ( 'NONE', #81 ) ;
#253 = AXIS2_PLACEMENT_3D ( 'NONE', #61, #274, #109 ) ;
#254 = DIRECTION ( 'NONE',  ( 3.491481338843133355E-15, -1.224646799147353207E-16, 1.000000000000000000 ) ) ;
#255 = DIRECTION ( 'NONE',  ( -3.491481338843133355E-15, 1.224646799147356658E-16, -1.000000000000000000 ) ) ;
#256 = UNCERTAINTY_MEASURE_WITH_UNIT (LENGTH_MEASURE( 1.000000000000000082E-05 ), #96, 'distance_accuracy_value', 'NONE');
#257 = DIRECTION ( 'NONE',  ( -3.491481338843133355E-15, 1.224646799147356658E-16, -1.000000000000000000 ) ) ;
#258 = SURFACE_STYLE_USAGE ( .BOTH. , #329 ) ;
#259 = SURFACE_STYLE_FILL_AREA ( #280 ) ;
#260 = VECTOR ( 'NONE', #243, 1000.000000000000000 ) ;
#261 = ADVANCED_FACE ( 'NONE', ( #195 ), #268, .T. ) ;
#262 =( NAMED_UNIT ( * ) SI_UNIT ( $, .STERADIAN. ) SOLID_ANGLE_UNIT ( ) );
#263 = VECTOR ( 'NONE', #6, 1000.000000000000000 ) ;
#264 = AXIS2_PLACEMENT_3D ( 'NONE', #66, #122, #156 ) ;
#265 = ADVANCED_FACE ( 'NONE', ( #32 ), #56, .F. ) ;
#266 = EDGE_LOOP ( 'NONE', ( #233, #278 ) ) ;
#267 = LINE ( 'NONE', #27, #20 ) ;
#268 = CYLINDRICAL_SURFACE ( 'NONE', #152, 1.499999999999995781 ) ;
#269 = EDGE_CURVE ( 'NONE', #145, #340, #138, .T. ) ;
#270 = ORIENTED_EDGE ( 'NONE', *, *, #307, .F. ) ;
#271 = DIRECTION ( 'NONE',  ( 3.491481338843133355E-15, -0.000000000000000000, 1.000000000000000000 ) ) ;
#272 = ORIENTED_EDGE ( 'NONE', *, *, #94, .F. ) ;
#273 = DIRECTION ( 'NONE',  ( 4.275831445896958607E-31, 1.000000000000000000, 1.224646799147353207E-16 ) ) ;
#274 = DIRECTION ( 'NONE',  ( 3.491481338843133355E-15, -0.000000000000000000, 1.000000000000000000 ) ) ;
#275 = CARTESIAN_POINT ( 'NONE',  ( 1.117274028429802674E-14, 0.7499999999999994449, 3.200000000000000178 ) ) ;
#276 = CARTESIAN_POINT ( 'NONE',  ( 1.117274028429802674E-14, -3.918869757271530460E-16, 3.200000000000000178 ) ) ;
#277 = CARTESIAN_POINT ( 'NONE',  ( 1.117274028429802674E-14, -3.918869757271530460E-16, 3.200000000000000178 ) ) ;
#278 = ORIENTED_EDGE ( 'NONE', *, *, #118, .T. ) ;
#279 = VERTEX_POINT ( 'NONE', #321 ) ;
#280 = FILL_AREA_STYLE ('',( #65 ) ) ;
#281 = CARTESIAN_POINT ( 'NONE',  ( 1.316288464743860959E-13, -4.616918432785520292E-15, 37.69999999999998863 ) ) ;
#282 =( LENGTH_UNIT ( ) NAMED_UNIT ( * ) SI_UNIT ( .MILLI., .METRE. ) );
#283 = CIRCLE ( 'NONE', #83, 0.7499999999999994449 ) ;
#284 =( LENGTH_UNIT ( ) NAMED_UNIT ( * ) SI_UNIT ( .MILLI., .METRE. ) );
#285 = EDGE_CURVE ( 'NONE', #308, #108, #88, .T. ) ;
#286 = CONICAL_SURFACE ( 'NONE', #128, 0.7499999999999998890, 0.3450620389298190149 ) ;
#287 = EDGE_LOOP ( 'NONE', ( #270, #16, #272, #250 ) ) ;
#288 = DIRECTION ( 'NONE',  ( 3.491481338843133355E-15, -0.000000000000000000, 1.000000000000000000 ) ) ;
#289 = ORIENTED_EDGE ( 'NONE', *, *, #165, .F. ) ;
#290 = DIRECTION ( 'NONE',  ( 3.491481338843133355E-15, -0.000000000000000000, 1.000000000000000000 ) ) ;
#291 = ORIENTED_EDGE ( 'NONE', *, *, #313, .F. ) ;
#292 = DIRECTION ( 'NONE',  ( 3.491481338843133355E-15, -1.224646799147353207E-16, 1.000000000000000000 ) ) ;
#293 = AXIS2_PLACEMENT_3D ( 'NONE', #172, #271, #30 ) ;
#294 = AXIS2_PLACEMENT_3D ( 'NONE', #17, #92, #203 ) ;
#295 = CARTESIAN_POINT ( 'NONE',  ( 6.413747168845419518E-31, 1.499999999999995781, 1.836970198721024511E-16 ) ) ;
#296 = PRODUCT_DEFINITION_CONTEXT ( 'detailed design', #149, 'design' ) ;
#297 = VERTEX_POINT ( 'NONE', #146 ) ;
#298 = DIRECTION ( 'NONE',  ( 0.000000000000000000, 1.000000000000000000, 0.000000000000000000 ) ) ;
#299 = ORIENTED_EDGE ( 'NONE', *, *, #57, .T. ) ;
#300 = CARTESIAN_POINT ( 'NONE',  ( 7.522709014303044565E-14, -1.500000000000000222, 37.69999999999998863 ) ) ;
#301 = AXIS2_PLACEMENT_3D ( 'NONE', #70, #257, #157 ) ;
#302 = PRESENTATION_LAYER_ASSIGNMENT (  '', '', ( #219 ) ) ;
#303 = CARTESIAN_POINT ( 'NONE',  ( 1.316288464743860959E-13, 1.499999999999991118, 37.69999999999998863 ) ) ;
#304 = CARTESIAN_POINT ( 'NONE',  ( 1.126458879423407810E-14, 0.7499999999999994449, 3.200000000000000178 ) ) ;
#305 = DIRECTION ( 'NONE',  ( 3.491481338843133355E-15, -1.224646799147353207E-16, 1.000000000000000000 ) ) ;
#306 = CARTESIAN_POINT ( 'NONE',  ( 0.7500000000000106581, 0.000000000000000000, 3.199999999999997513 ) ) ;
#307 = EDGE_CURVE ( 'NONE', #297, #252, #323, .T. ) ;
#308 = VERTEX_POINT ( 'NONE', #334 ) ;
#309 = DIRECTION ( 'NONE',  ( 3.327098416510788004E-15, 0.3382550599108817835, 0.9410544694355825746 ) ) ;
#310 = DIRECTION ( 'NONE',  ( 0.000000000000000000, -1.000000000000000000, 0.000000000000000000 ) ) ;
#311 = DIRECTION ( 'NONE',  ( 0.000000000000000000, 1.000000000000000000, 0.000000000000000000 ) ) ;
#312 = DIRECTION ( 'NONE',  ( 1.000000000000000000, 0.000000000000000000, 0.000000000000000000 ) ) ;
#313 = EDGE_CURVE ( 'NONE', #145, #58, #240, .T. ) ;
#314 = SURFACE_STYLE_FILL_AREA ( #341 ) ;
#315 = PRODUCT_DEFINITION_SHAPE ( 'NONE', 'NONE',  #158 ) ;
#316 = ADVANCED_FACE ( 'NONE', ( #41 ), #125, .T. ) ;
#317 = ORIENTED_EDGE ( 'NONE', *, *, #285, .T. ) ;
#318 = DIRECTION ( 'NONE',  ( -3.491481338843133355E-15, 1.224646799147353207E-16, -1.000000000000000000 ) ) ;
#319 = ORIENTED_EDGE ( 'NONE', *, *, #230, .F. ) ;
#320 = CYLINDRICAL_SURFACE ( 'NONE', #188, 0.7499999999999996669 ) ;
#321 = CARTESIAN_POINT ( 'NONE',  ( -0.7499999999999883427, 9.184850993605144740E-17, 3.200000000000002842 ) ) ;
#322 = AXIS2_PLACEMENT_3D ( 'NONE', #227, #292, #168 ) ;
#323 = CIRCLE ( 'NONE', #264, 1.199999999999989075 ) ;
#324 = VERTEX_POINT ( 'NONE', #300 ) ;
#325 = DIRECTION ( 'NONE',  ( -2.382254525458724175E-15, -0.7071067811865451302, -0.7071067811865499042 ) ) ;
#326 = EDGE_CURVE ( 'NONE', #13, #308, #21, .T. ) ;
#327 = ORIENTED_EDGE ( 'NONE', *, *, #102, .F. ) ;
#328 = ORIENTED_EDGE ( 'NONE', *, *, #22, .T. ) ;
#329 = SURFACE_SIDE_STYLE ('',( #153 ) ) ;
#330 = AXIS2_PLACEMENT_3D ( 'NONE', #276, #74, #311 ) ;
#331 = VECTOR ( 'NONE', #309, 1000.000000000000114 ) ;
#332 = MANIFOLD_SOLID_BREP ( 'Corps-Déplacer/Copier1[2]', #232 ) ;
#333 = ORIENTED_EDGE ( 'NONE', *, *, #217, .T. ) ;
#334 = CARTESIAN_POINT ( 'NONE',  ( 1.495311279301846425E-14, 0.7499999999999994449, 3.200000000000000178 ) ) ;
#335 = FACE_OUTER_BOUND ( 'NONE', #87, .T. ) ;
#336 = EDGE_LOOP ( 'NONE', ( #224, #143, #111, #43 ) ) ;
#337 = DIRECTION ( 'NONE',  ( 1.000000000000000000, 0.000000000000000000, -3.469446951953615767E-15 ) ) ;
#338 = AXIS2_PLACEMENT_3D ( 'NONE', #119, #305, #310 ) ;
#339 = AXIS2_PLACEMENT_3D ( 'NONE', #51, #176, #298 ) ;
#340 = VERTEX_POINT ( 'NONE', #306 ) ;
#341 = FILL_AREA_STYLE ('',( #187 ) ) ;
#342 = CIRCLE ( 'NONE', #99, 1.499999999999995781 ) ;
#343 = ADVANCED_FACE ( 'NONE', ( #236 ), #186, .T. ) ;
ENDSEC;
END-ISO-10303-21;
