ISO-10303-21;
HEADER;
FILE_DESCRIPTION (( 'STEP AP214' ),
    '1' );
FILE_NAME ('41568.step',
    '2024-04-04T09:32:53',
    ( '' ),
    ( '' ),
    'SwSTEP 2.0',
    'SolidWorks 2022',
    '' );
FILE_SCHEMA (( 'AUTOMOTIVE_DESIGN' ));
ENDSEC;

DATA;
#1 = EDGE_CURVE ( 'NONE', #234, #238, #276, .T. ) ;
#2 =( GEOMETRIC_REPRESENTATION_CONTEXT ( 3 ) GLOBAL_UNCERTAINTY_ASSIGNED_CONTEXT ( ( #157 ) ) GLOBAL_UNIT_ASSIGNED_CONTEXT ( ( #282, #154, #229 ) ) REPRESENTATION_CONTEXT ( 'NONE', 'WORKASPACE' ) );
#3 = ORIENTED_EDGE ( 'NONE', *, *, #85, .F. ) ;
#4 = CARTESIAN_POINT ( 'NONE',  ( 1.326762908760390423E-13, -4.653657836759941941E-15, 38.00000000000000000 ) ) ;
#5 = ORIENTED_EDGE ( 'NONE', *, *, #332, .T. ) ;
#6 = SURFACE_SIDE_STYLE ('',( #15 ) ) ;
#7 = DIRECTION ( 'NONE',  ( 0.000000000000000000, 1.000000000000000000, 0.000000000000000000 ) ) ;
#8 = DIRECTION ( 'NONE',  ( 3.327098416510788004E-15, 0.3382550599108818390, 0.9410544694355825746 ) ) ;
#9 = AXIS2_PLACEMENT_3D ( 'NONE', #215, #124, #192 ) ;
#10 = AXIS2_PLACEMENT_3D ( 'NONE', #24, #211, #207 ) ;
#11 = CARTESIAN_POINT ( 'NONE',  ( 1.942929970361512120E-14, -6.814880958118133102E-16, 5.564772604528030797 ) ) ;
#12 = ADVANCED_FACE ( 'NONE', ( #14 ), #328, .T. ) ;
#13 = PRODUCT ( '41568', '41568', '', ( #113 ) ) ;
#14 = FACE_OUTER_BOUND ( 'NONE', #303, .T. ) ;
#15 = SURFACE_STYLE_FILL_AREA ( #305 ) ;
#16 = DIRECTION ( 'NONE',  ( 3.491481338843133355E-15, -0.000000000000000000, 1.000000000000000000 ) ) ;
#17 = LINE ( 'NONE', #123, #341 ) ;
#18 = CARTESIAN_POINT ( 'NONE',  ( 0.000000000000000000, 0.000000000000000000, 0.000000000000000000 ) ) ;
#19 = AXIS2_PLACEMENT_3D ( 'NONE', #136, #93, #197 ) ;
#20 = DIRECTION ( 'NONE',  ( 3.819167204710539130E-14, -1.000000000000000000, 0.000000000000000000 ) ) ;
#21 = COLOUR_RGB ( '',0.8980392156862745390, 0.9176470588235293713, 0.9294117647058823817 ) ;
#22 = DIRECTION ( 'NONE',  ( 3.491481338843133355E-15, -0.000000000000000000, 1.000000000000000000 ) ) ;
#23 = FACE_OUTER_BOUND ( 'NONE', #174, .T. ) ;
#24 = CARTESIAN_POINT ( 'NONE',  ( 1.117274028429802674E-14, 0.000000000000000000, 3.200000000000000178 ) ) ;
#25 = VECTOR ( 'NONE', #90, 1000.000000000000000 ) ;
#26 = CARTESIAN_POINT ( 'NONE',  ( 1.836970198721018348E-16, -1.499999999999995781, -1.836970198721030920E-16 ) ) ;
#27 = CIRCLE ( 'NONE', #228, 0.6499999999999999112 ) ;
#28 = ORIENTED_EDGE ( 'NONE', *, *, #114, .F. ) ;
#29 = DIRECTION ( 'NONE',  ( -3.491481338843133355E-15, 1.224646799147353207E-16, -1.000000000000000000 ) ) ;
#30 = CYLINDRICAL_SURFACE ( 'NONE', #19, 0.6499999999999996891 ) ;
#31 = VERTEX_POINT ( 'NONE', #213 ) ;
#32 = CARTESIAN_POINT ( 'NONE',  ( 1.326762908760390423E-13, -4.653657836759941941E-15, 38.00000000000000000 ) ) ;
#33 = AXIS2_PLACEMENT_3D ( 'NONE', #319, #184, #155 ) ;
#34 = VERTEX_POINT ( 'NONE', #58 ) ;
#35 = FILL_AREA_STYLE_COLOUR ( '', #21 ) ;
#36 = ADVANCED_FACE ( 'NONE', ( #268 ), #30, .T. ) ;
#37 = ORIENTED_EDGE ( 'NONE', *, *, #158, .T. ) ;
#38 = STYLED_ITEM ( 'NONE', ( #227 ), #178 ) ;
#39 =( NAMED_UNIT ( * ) SI_UNIT ( $, .STERADIAN. ) SOLID_ANGLE_UNIT ( ) );
#40 = PLANE ( 'NONE',  #335 ) ;
#41 = ORIENTED_EDGE ( 'NONE', *, *, #95, .F. ) ;
#42 = CARTESIAN_POINT ( 'NONE',  ( 1.942929970361512120E-14, -6.814880958118133102E-16, 5.564772604528030797 ) ) ;
#43 = EDGE_CURVE ( 'NONE', #322, #115, #17, .T. ) ;
#44 = DIRECTION ( 'NONE',  ( 3.491481338843133355E-15, -0.000000000000000000, 1.000000000000000000 ) ) ;
#45 = SURFACE_SIDE_STYLE ('',( #230 ) ) ;
#46 = ADVANCED_FACE ( 'NONE', ( #225 ), #331, .T. ) ;
#47 = DIRECTION ( 'NONE',  ( -3.491481338843133355E-15, 1.224646799147353207E-16, -1.000000000000000000 ) ) ;
#48 = AXIS2_PLACEMENT_3D ( 'NONE', #262, #182, #20 ) ;
#49 = CARTESIAN_POINT ( 'NONE',  ( -0.6499999999999882538, 7.960204194457790546E-17, 3.200000000000002398 ) ) ;
#50 = EDGE_CURVE ( 'NONE', #143, #65, #329, .T. ) ;
#51 = APPLICATION_CONTEXT ( 'automotive_design' ) ;
#52 = DIRECTION ( 'NONE',  ( 3.491481338843133355E-15, -1.224646799147353207E-16, 1.000000000000000000 ) ) ;
#53 = AXIS2_PLACEMENT_3D ( 'NONE', #144, #16, #251 ) ;
#54 = CIRCLE ( 'NONE', #129, 1.499999999999995781 ) ;
#55 = DIRECTION ( 'NONE',  ( 0.000000000000000000, -1.000000000000000000, 0.000000000000000000 ) ) ;
#56 = DIRECTION ( 'NONE',  ( -3.730349362740525976E-14, -1.000000000000000000, 0.000000000000000000 ) ) ;
#57 = CIRCLE ( 'NONE', #232, 1.199999999999989075 ) ;
#58 = CARTESIAN_POINT ( 'NONE',  ( 1.323178959930974653E-13, -1.199999999999993516, 38.00000000000000000 ) ) ;
#59 = CARTESIAN_POINT ( 'NONE',  ( 0.000000000000000000, 0.000000000000000000, 0.000000000000000000 ) ) ;
#60 = ORIENTED_EDGE ( 'NONE', *, *, #332, .F. ) ;
#61 = DIRECTION ( 'NONE',  ( 0.000000000000000000, -1.000000000000000000, 0.000000000000000000 ) ) ;
#62 = ORIENTED_EDGE ( 'NONE', *, *, #50, .T. ) ;
#63 = DIRECTION ( 'NONE',  ( -3.491481338843133355E-15, 1.224646799147353207E-16, -1.000000000000000000 ) ) ;
#64 = STYLED_ITEM ( 'NONE', ( #172 ), #112 ) ;
#65 = VERTEX_POINT ( 'NONE', #138 ) ;
#66 = ORIENTED_EDGE ( 'NONE', *, *, #295, .T. ) ;
#67 = CLOSED_SHELL ( 'NONE', ( #127, #316, #12, #266, #81, #177, #46, #258 ) ) ;
#68 = EDGE_CURVE ( 'NONE', #91, #238, #118, .T. ) ;
#69 = DIRECTION ( 'NONE',  ( 3.491481338843133355E-15, -0.000000000000000000, 1.000000000000000000 ) ) ;
#70 = DIRECTION ( 'NONE',  ( -4.275831445896958607E-31, -1.000000000000000000, -1.224646799147353207E-16 ) ) ;
#71 = CARTESIAN_POINT ( 'NONE',  ( 1.942929970361512120E-14, 1.499999999999995337, 5.564772604528030797 ) ) ;
#72 = FILL_AREA_STYLE ('',( #73 ) ) ;
#73 = FILL_AREA_STYLE_COLOUR ( '', #186 ) ;
#74 = SURFACE_SIDE_STYLE ('',( #313 ) ) ;
#75 = FILL_AREA_STYLE_COLOUR ( '', #212 ) ;
#76 = CLOSED_SHELL ( 'NONE', ( #237, #36, #284, #149 ) ) ;
#77 = DIRECTION ( 'NONE',  ( 0.000000000000000000, -1.000000000000000000, 0.000000000000000000 ) ) ;
#78 = PRODUCT_DEFINITION_SHAPE ( 'NONE', 'NONE',  #244 ) ;
#79 = AXIS2_PLACEMENT_3D ( 'NONE', #59, #279, #223 ) ;
#80 = CONICAL_SURFACE ( 'NONE', #9, 1.499999999999995781, 0.7853981633974450594 ) ;
#81 = ADVANCED_FACE ( 'NONE', ( #327 ), #273, .T. ) ;
#82 = ORIENTED_EDGE ( 'NONE', *, *, #208, .F. ) ;
#83 = EDGE_LOOP ( 'NONE', ( #190, #326, #187, #252 ) ) ;
#84 = FACE_OUTER_BOUND ( 'NONE', #135, .T. ) ;
#85 = EDGE_CURVE ( 'NONE', #31, #322, #159, .T. ) ;
#86 = PRESENTATION_LAYER_ASSIGNMENT (  '', '', ( #38 ) ) ;
#87 = VERTEX_POINT ( 'NONE', #175 ) ;
#88 = CARTESIAN_POINT ( 'NONE',  ( 3.206873584422718626E-32, 0.6499999999999999112, 9.184850993605147205E-18 ) ) ;
#89 = ORIENTED_EDGE ( 'NONE', *, *, #106, .T. ) ;
#90 = DIRECTION ( 'NONE',  ( 3.285674118869261816E-15, -0.3382550599108820610, 0.9410544694355824635 ) ) ;
#91 = VERTEX_POINT ( 'NONE', #96 ) ;
#92 = DIRECTION ( 'NONE',  ( 1.000000000000000000, 0.000000000000000000, -3.491481338843133355E-15 ) ) ;
#93 = DIRECTION ( 'NONE',  ( 3.491481338843133355E-15, -0.000000000000000000, 1.000000000000000000 ) ) ;
#94 =( NAMED_UNIT ( * ) PLANE_ANGLE_UNIT ( ) SI_UNIT ( $, .RADIAN. ) );
#95 = EDGE_CURVE ( 'NONE', #87, #91, #308, .T. ) ;
#96 = CARTESIAN_POINT ( 'NONE',  ( 7.571277010887270656E-14, -1.499999999999996669, 5.564772604528030797 ) ) ;
#97 = CYLINDRICAL_SURFACE ( 'NONE', #220, 0.6499999999999996891 ) ;
#98 = EDGE_CURVE ( 'NONE', #238, #91, #283, .T. ) ;
#99 = AXIS2_PLACEMENT_3D ( 'NONE', #18, #69, #92 ) ;
#100 = AXIS2_PLACEMENT_3D ( 'NONE', #296, #104, #102 ) ;
#101 = PLANE ( 'NONE',  #119 ) ;
#102 = DIRECTION ( 'NONE',  ( -1.000000000000000000, 0.000000000000000000, 3.491481338843133355E-15 ) ) ;
#103 = VECTOR ( 'NONE', #323, 1000.000000000000114 ) ;
#104 = DIRECTION ( 'NONE',  ( -3.491481338843133355E-15, 0.000000000000000000, -1.000000000000000000 ) ) ;
#105 = CARTESIAN_POINT ( 'NONE',  ( 1.316288464743860959E-13, -4.616918432785520292E-15, 37.69999999999998863 ) ) ;
#106 = EDGE_CURVE ( 'NONE', #322, #31, #261, .T. ) ;
#107 = PRESENTATION_LAYER_ASSIGNMENT (  '', '', ( #248 ) ) ;
#108 = PRODUCT_DEFINITION_CONTEXT ( 'detailed design', #224, 'design' ) ;
#109 = DIRECTION ( 'NONE',  ( 4.275831445896958607E-31, 1.000000000000000000, 1.224646799147353207E-16 ) ) ;
#110 = DIRECTION ( 'NONE',  ( -3.491481338843133355E-15, 1.224646799147356658E-16, -1.000000000000000000 ) ) ;
#111 = EDGE_LOOP ( 'NONE', ( #82, #166, #221, #216 ) ) ;
#112 = ADVANCED_BREP_SHAPE_REPRESENTATION ( '41568', ( #178, #180, #79 ), #254 ) ;
#113 = PRODUCT_CONTEXT ( 'NONE', #51, 'mechanical' ) ;
#114 = EDGE_CURVE ( 'NONE', #143, #34, #150, .T. ) ;
#115 = VERTEX_POINT ( 'NONE', #306 ) ;
#116 = SURFACE_STYLE_USAGE ( .BOTH. , #6 ) ;
#117 = DIRECTION ( 'NONE',  ( 3.491481338843133355E-15, -1.224646799147353207E-16, 1.000000000000000000 ) ) ;
#118 = CIRCLE ( 'NONE', #269, 1.499999999999996003 ) ;
#119 = AXIS2_PLACEMENT_3D ( 'NONE', #286, #47, #204 ) ;
#120 = ORIENTED_EDGE ( 'NONE', *, *, #163, .T. ) ;
#121 = ORIENTED_EDGE ( 'NONE', *, *, #208, .T. ) ;
#122 = LINE ( 'NONE', #281, #103 ) ;
#123 = CARTESIAN_POINT ( 'NONE',  ( 0.6500000000000107914, 0.000000000000000000, 3.199999999999997957 ) ) ;
#124 = DIRECTION ( 'NONE',  ( -3.491481338843133355E-15, 1.224646799147356658E-16, -1.000000000000000000 ) ) ;
#125 = VECTOR ( 'NONE', #203, 1000.000000000000000 ) ;
#126 = CARTESIAN_POINT ( 'NONE',  ( 6.413747168845419518E-31, 1.499999999999995781, 1.836970198721024511E-16 ) ) ;
#127 = ADVANCED_FACE ( 'NONE', ( #275 ), #80, .T. ) ;
#128 =( LENGTH_UNIT ( ) NAMED_UNIT ( * ) SI_UNIT ( .MILLI., .METRE. ) );
#129 = AXIS2_PLACEMENT_3D ( 'NONE', #105, #110, #56 ) ;
#130 = FACE_OUTER_BOUND ( 'NONE', #241, .T. ) ;
#131 = LINE ( 'NONE', #200, #290 ) ;
#132 = FACE_OUTER_BOUND ( 'NONE', #267, .T. ) ;
#133 = VERTEX_POINT ( 'NONE', #309 ) ;
#134 =( NAMED_UNIT ( * ) SI_UNIT ( $, .STERADIAN. ) SOLID_ANGLE_UNIT ( ) );
#135 = EDGE_LOOP ( 'NONE', ( #320, #66, #274, #205 ) ) ;
#136 = CARTESIAN_POINT ( 'NONE',  ( 1.117274028429802674E-14, 0.000000000000000000, 3.200000000000000178 ) ) ;
#137 = EDGE_LOOP ( 'NONE', ( #37, #242 ) ) ;
#138 = CARTESIAN_POINT ( 'NONE',  ( 7.552907308900061646E-14, 1.499999999999991118, 37.69999999999998863 ) ) ;
#139 = AXIS2_PLACEMENT_3D ( 'NONE', #210, #52, #55 ) ;
#140 = EDGE_LOOP ( 'NONE', ( #292, #5 ) ) ;
#141 = DIRECTION ( 'NONE',  ( 0.000000000000000000, 1.000000000000000000, 0.000000000000000000 ) ) ;
#142 = AXIS2_PLACEMENT_3D ( 'NONE', #277, #117, #61 ) ;
#143 = VERTEX_POINT ( 'NONE', #245 ) ;
#144 = CARTESIAN_POINT ( 'NONE',  ( 1.117274028429802674E-14, 0.000000000000000000, 3.200000000000000178 ) ) ;
#145 = DIRECTION ( 'NONE',  ( -3.491481338843133355E-15, 1.224646799147353207E-16, -1.000000000000000000 ) ) ;
#146 = APPLICATION_PROTOCOL_DEFINITION ( 'draft international standard', 'automotive_design', 1998, #51 ) ;
#147 = DIRECTION ( 'NONE',  ( -2.468850131082272838E-15, 0.7071067811865453523, -0.7071067811865496822 ) ) ;
#148 = DIRECTION ( 'NONE',  ( -3.491481338843133355E-15, 1.224646799147353207E-16, -1.000000000000000000 ) ) ;
#149 = ADVANCED_FACE ( 'NONE', ( #173 ), #40, .F. ) ;
#150 = CIRCLE ( 'NONE', #256, 1.199999999999989075 ) ;
#151 = CARTESIAN_POINT ( 'NONE',  ( 1.316288464743860959E-13, -4.616918432785520292E-15, 37.69999999999998863 ) ) ;
#152 = DIRECTION ( 'NONE',  ( 1.000000000000000000, 0.000000000000000000, -3.336006684570784482E-15 ) ) ;
#153 = DIRECTION ( 'NONE',  ( 3.491481338843133355E-15, -0.000000000000000000, 1.000000000000000000 ) ) ;
#154 =( NAMED_UNIT ( * ) PLANE_ANGLE_UNIT ( ) SI_UNIT ( $, .RADIAN. ) );
#155 = DIRECTION ( 'NONE',  ( 0.000000000000000000, 1.000000000000000000, 0.000000000000000000 ) ) ;
#156 = ORIENTED_EDGE ( 'NONE', *, *, #158, .F. ) ;
#157 = UNCERTAINTY_MEASURE_WITH_UNIT (LENGTH_MEASURE( 1.000000000000000082E-05 ), #282, 'distance_accuracy_value', 'NONE');
#158 = EDGE_CURVE ( 'NONE', #115, #214, #201, .T. ) ;
#159 = CIRCLE ( 'NONE', #99, 0.6499999999999999112 ) ;
#160 = CONICAL_SURFACE ( 'NONE', #312, 1.499999999999995781, 0.7853981633974450594 ) ;
#161 = CARTESIAN_POINT ( 'NONE',  ( 1.326762908760390423E-13, -4.653657836759941941E-15, 38.00000000000000000 ) ) ;
#162 = DIRECTION ( 'NONE',  ( 0.000000000000000000, 1.000000000000000000, 0.000000000000000000 ) ) ;
#163 = EDGE_CURVE ( 'NONE', #34, #133, #122, .T. ) ;
#164 = ORIENTED_EDGE ( 'NONE', *, *, #219, .F. ) ;
#165 = AXIS2_PLACEMENT_3D ( 'NONE', #42, #148, #7 ) ;
#166 = ORIENTED_EDGE ( 'NONE', *, *, #85, .T. ) ;
#167 = DIRECTION ( 'NONE',  ( 4.275831445896958607E-31, 1.000000000000000000, 1.224646799147353207E-16 ) ) ;
#168 = ORIENTED_EDGE ( 'NONE', *, *, #181, .F. ) ;
#169 = DIRECTION ( 'NONE',  ( -3.491481338843133355E-15, 1.224646799147353207E-16, -1.000000000000000000 ) ) ;
#170 = PRODUCT_DEFINITION_FORMATION_WITH_SPECIFIED_SOURCE ( 'ANY', '', #13, .NOT_KNOWN. ) ;
#171 = ORIENTED_EDGE ( 'NONE', *, *, #1, .T. ) ;
#172 = PRESENTATION_STYLE_ASSIGNMENT (( #116 ) ) ;
#173 = FACE_OUTER_BOUND ( 'NONE', #264, .T. ) ;
#174 = EDGE_LOOP ( 'NONE', ( #89, #121, #156, #188 ) ) ;
#175 = CARTESIAN_POINT ( 'NONE',  ( 1.530101999395657239E-14, -0.6500000000000002442, 3.200000000000000178 ) ) ;
#176 = DIRECTION ( 'NONE',  ( 1.000000000000000000, 0.000000000000000000, -3.491481338843133355E-15 ) ) ;
#177 = ADVANCED_FACE ( 'NONE', ( #84 ), #302, .T. ) ;
#178 = MANIFOLD_SOLID_BREP ( 'Corps-Déplacer/Copier1[1]', #67 ) ;
#179 = VECTOR ( 'NONE', #147, 1000.000000000000000 ) ;
#180 = MANIFOLD_SOLID_BREP ( 'Corps-Déplacer/Copier1[2]', #76 ) ;
#181 = EDGE_CURVE ( 'NONE', #65, #133, #196, .T. ) ;
#182 = DIRECTION ( 'NONE',  ( -3.491481338843133355E-15, 1.224646799147356658E-16, -1.000000000000000000 ) ) ;
#183 = ORIENTED_EDGE ( 'NONE', *, *, #163, .F. ) ;
#184 = DIRECTION ( 'NONE',  ( -3.491481338843133355E-15, 1.224646799147353207E-16, -1.000000000000000000 ) ) ;
#185 = PLANE ( 'NONE',  #100 ) ;
#186 = COLOUR_RGB ( '',0.8980392156862745390, 0.9176470588235293713, 0.9294117647058823817 ) ;
#187 = ORIENTED_EDGE ( 'NONE', *, *, #95, .T. ) ;
#188 = ORIENTED_EDGE ( 'NONE', *, *, #43, .F. ) ;
#189 = DIRECTION ( 'NONE',  ( 3.491481338843133355E-15, -0.000000000000000000, 1.000000000000000000 ) ) ;
#190 = ORIENTED_EDGE ( 'NONE', *, *, #1, .F. ) ;
#191 =( LENGTH_UNIT ( ) NAMED_UNIT ( * ) SI_UNIT ( .MILLI., .METRE. ) );
#192 = DIRECTION ( 'NONE',  ( 0.000000000000000000, 1.000000000000000000, 0.000000000000000000 ) ) ;
#193 = ORIENTED_EDGE ( 'NONE', *, *, #336, .T. ) ;
#194 = DIRECTION ( 'NONE',  ( 0.000000000000000000, -1.000000000000000000, 0.000000000000000000 ) ) ;
#195 = ORIENTED_EDGE ( 'NONE', *, *, #181, .T. ) ;
#196 = CIRCLE ( 'NONE', #48, 1.499999999999995781 ) ;
#197 = DIRECTION ( 'NONE',  ( 1.000000000000000000, 0.000000000000000000, -3.336006684570784482E-15 ) ) ;
#198 = PRODUCT_RELATED_PRODUCT_CATEGORY ( 'part', '', ( #13 ) ) ;
#199 = CIRCLE ( 'NONE', #33, 0.6499999999999999112 ) ;
#200 = CARTESIAN_POINT ( 'NONE',  ( -0.6499999999999884759, 7.960204194457791779E-17, 3.200000000000002398 ) ) ;
#201 = CIRCLE ( 'NONE', #53, 0.6499999999999994671 ) ;
#202 = VECTOR ( 'NONE', #29, 1000.000000000000000 ) ;
#203 = DIRECTION ( 'NONE',  ( -3.491481338843133355E-15, 1.224646799147353207E-16, -1.000000000000000000 ) ) ;
#204 = DIRECTION ( 'NONE',  ( 4.275831445896958607E-31, 1.000000000000000000, 1.224646799147353207E-16 ) ) ;
#205 = ORIENTED_EDGE ( 'NONE', *, *, #68, .F. ) ;
#206 = AXIS2_PLACEMENT_3D ( 'NONE', #247, #189, #280 ) ;
#207 = DIRECTION ( 'NONE',  ( 1.000000000000000000, 0.000000000000000000, -3.336006684570785665E-15 ) ) ;
#208 = EDGE_CURVE ( 'NONE', #31, #214, #131, .T. ) ;
#209 = PRESENTATION_LAYER_ASSIGNMENT (  '', '', ( #64 ) ) ;
#210 = CARTESIAN_POINT ( 'NONE',  ( 1.117274028429802674E-14, -3.918869757271530460E-16, 3.200000000000000178 ) ) ;
#211 = DIRECTION ( 'NONE',  ( 3.491481338843133355E-15, -0.000000000000000000, 1.000000000000000000 ) ) ;
#212 = COLOUR_RGB ( '',0.8980392156862745390, 0.9176470588235293713, 0.9294117647058823817 ) ;
#213 = CARTESIAN_POINT ( 'NONE',  ( -0.6499999999999999112, 7.960204194457863270E-17, 2.269462870248036287E-15 ) ) ;
#214 = VERTEX_POINT ( 'NONE', #49 ) ;
#215 = CARTESIAN_POINT ( 'NONE',  ( 1.316288464743860959E-13, -4.616918432785520292E-15, 37.69999999999998863 ) ) ;
#216 = ORIENTED_EDGE ( 'NONE', *, *, #270, .F. ) ;
#217 = CARTESIAN_POINT ( 'NONE',  ( 1.117274028429802674E-14, -0.6500000000000002442, 3.200000000000000178 ) ) ;
#218 = MECHANICAL_DESIGN_GEOMETRIC_PRESENTATION_REPRESENTATION (  '', ( #38 ), #318 ) ;
#219 = EDGE_CURVE ( 'NONE', #65, #238, #311, .T. ) ;
#220 = AXIS2_PLACEMENT_3D ( 'NONE', #231, #22, #152 ) ;
#221 = ORIENTED_EDGE ( 'NONE', *, *, #43, .T. ) ;
#222 = ORIENTED_EDGE ( 'NONE', *, *, #321, .F. ) ;
#223 = DIRECTION ( 'NONE',  ( 1.000000000000000000, 0.000000000000000000, 0.000000000000000000 ) ) ;
#224 = APPLICATION_CONTEXT ( 'automotive_design' ) ;
#225 = FACE_OUTER_BOUND ( 'NONE', #83, .T. ) ;
#226 = CARTESIAN_POINT ( 'NONE',  ( 1.316288464743860959E-13, 1.499999999999991118, 37.69999999999998863 ) ) ;
#227 = PRESENTATION_STYLE_ASSIGNMENT (( #333 ) ) ;
#228 = AXIS2_PLACEMENT_3D ( 'NONE', #236, #293, #162 ) ;
#229 =( NAMED_UNIT ( * ) SI_UNIT ( $, .STERADIAN. ) SOLID_ANGLE_UNIT ( ) );
#230 = SURFACE_STYLE_FILL_AREA ( #72 ) ;
#231 = CARTESIAN_POINT ( 'NONE',  ( 1.117274028429802674E-14, 0.000000000000000000, 3.200000000000000178 ) ) ;
#232 = AXIS2_PLACEMENT_3D ( 'NONE', #161, #265, #77 ) ;
#233 =( NAMED_UNIT ( * ) PLANE_ANGLE_UNIT ( ) SI_UNIT ( $, .RADIAN. ) );
#234 = VERTEX_POINT ( 'NONE', #285 ) ;
#235 = MECHANICAL_DESIGN_GEOMETRIC_PRESENTATION_REPRESENTATION (  '', ( #248 ), #2 ) ;
#236 = CARTESIAN_POINT ( 'NONE',  ( 1.117274028429802674E-14, -3.918869757271530460E-16, 3.200000000000000178 ) ) ;
#237 = ADVANCED_FACE ( 'NONE', ( #23 ), #97, .T. ) ;
#238 = VERTEX_POINT ( 'NONE', #71 ) ;
#239 =( LENGTH_UNIT ( ) NAMED_UNIT ( * ) SI_UNIT ( .MILLI., .METRE. ) );
#240 = AXIS2_PLACEMENT_3D ( 'NONE', #4, #253, #70 ) ;
#241 = EDGE_LOOP ( 'NONE', ( #193, #250 ) ) ;
#242 = ORIENTED_EDGE ( 'NONE', *, *, #270, .T. ) ;
#243 = SHAPE_DEFINITION_REPRESENTATION ( #78, #112 ) ;
#244 = PRODUCT_DEFINITION ( 'UNKNOWN', '', #170, #108 ) ;
#245 = CARTESIAN_POINT ( 'NONE',  ( 1.321525686752125943E-13, 1.199999999999984412, 38.00000000000000000 ) ) ;
#246 = CARTESIAN_POINT ( 'NONE',  ( 1.125234232624260553E-14, 0.6499999999999994671, 3.200000000000000178 ) ) ;
#247 = CARTESIAN_POINT ( 'NONE',  ( 0.000000000000000000, 0.000000000000000000, 0.000000000000000000 ) ) ;
#248 = STYLED_ITEM ( 'NONE', ( #310 ), #180 ) ;
#249 = CIRCLE ( 'NONE', #10, 0.6499999999999994671 ) ;
#250 = ORIENTED_EDGE ( 'NONE', *, *, #321, .T. ) ;
#251 = DIRECTION ( 'NONE',  ( 1.000000000000000000, 0.000000000000000000, -3.336006684570785665E-15 ) ) ;
#252 = ORIENTED_EDGE ( 'NONE', *, *, #68, .T. ) ;
#253 = DIRECTION ( 'NONE',  ( 3.491481338843133355E-15, -1.224646799147353207E-16, 1.000000000000000000 ) ) ;
#254 =( GEOMETRIC_REPRESENTATION_CONTEXT ( 3 ) GLOBAL_UNCERTAINTY_ASSIGNED_CONTEXT ( ( #337 ) ) GLOBAL_UNIT_ASSIGNED_CONTEXT ( ( #239, #233, #134 ) ) REPRESENTATION_CONTEXT ( 'NONE', 'WORKASPACE' ) );
#255 =( NAMED_UNIT ( * ) PLANE_ANGLE_UNIT ( ) SI_UNIT ( $, .RADIAN. ) );
#256 = AXIS2_PLACEMENT_3D ( 'NONE', #32, #325, #194 ) ;
#257 = DIRECTION ( 'NONE',  ( -3.491481338843133355E-15, 1.224646799147356658E-16, -1.000000000000000000 ) ) ;
#258 = ADVANCED_FACE ( 'NONE', ( #259 ), #160, .T. ) ;
#259 = FACE_OUTER_BOUND ( 'NONE', #298, .T. ) ;
#260 =( GEOMETRIC_REPRESENTATION_CONTEXT ( 3 ) GLOBAL_UNCERTAINTY_ASSIGNED_CONTEXT ( ( #317 ) ) GLOBAL_UNIT_ASSIGNED_CONTEXT ( ( #191, #94, #39 ) ) REPRESENTATION_CONTEXT ( 'NONE', 'WORKASPACE' ) );
#261 = CIRCLE ( 'NONE', #206, 0.6499999999999999112 ) ;
#262 = CARTESIAN_POINT ( 'NONE',  ( 1.316288464743860959E-13, -4.616918432785520292E-15, 37.69999999999998863 ) ) ;
#263 = CARTESIAN_POINT ( 'NONE',  ( 0.6499999999999999112, 0.000000000000000000, -2.269462870248036287E-15 ) ) ;
#264 = EDGE_LOOP ( 'NONE', ( #315, #3 ) ) ;
#265 = DIRECTION ( 'NONE',  ( 3.491481338843133355E-15, -1.224646799147353207E-16, 1.000000000000000000 ) ) ;
#266 = ADVANCED_FACE ( 'NONE', ( #130 ), #101, .T. ) ;
#267 = EDGE_LOOP ( 'NONE', ( #222, #171, #297, #41 ) ) ;
#268 = FACE_OUTER_BOUND ( 'NONE', #111, .T. ) ;
#269 = AXIS2_PLACEMENT_3D ( 'NONE', #11, #169, #141 ) ;
#270 = EDGE_CURVE ( 'NONE', #214, #115, #249, .T. ) ;
#271 = ORIENTED_EDGE ( 'NONE', *, *, #98, .F. ) ;
#272 = APPLICATION_PROTOCOL_DEFINITION ( 'draft international standard', 'automotive_design', 1998, #224 ) ;
#273 = PLANE ( 'NONE',  #240 ) ;
#274 = ORIENTED_EDGE ( 'NONE', *, *, #219, .T. ) ;
#275 = FACE_OUTER_BOUND ( 'NONE', #307, .T. ) ;
#276 = LINE ( 'NONE', #246, #294 ) ;
#277 = CARTESIAN_POINT ( 'NONE',  ( 1.117274028429802674E-14, -3.918869757271530460E-16, 3.200000000000000178 ) ) ;
#278 = CARTESIAN_POINT ( 'NONE',  ( 0.000000000000000000, 0.000000000000000000, 0.000000000000000000 ) ) ;
#279 = DIRECTION ( 'NONE',  ( 0.000000000000000000, 0.000000000000000000, 1.000000000000000000 ) ) ;
#280 = DIRECTION ( 'NONE',  ( 1.000000000000000000, 0.000000000000000000, -3.491481338843133355E-15 ) ) ;
#281 = CARTESIAN_POINT ( 'NONE',  ( 1.318125434942581860E-13, -1.500000000000000222, 37.69999999999998863 ) ) ;
#282 =( LENGTH_UNIT ( ) NAMED_UNIT ( * ) SI_UNIT ( .MILLI., .METRE. ) );
#283 = CIRCLE ( 'NONE', #165, 1.499999999999996003 ) ;
#284 = ADVANCED_FACE ( 'NONE', ( #343 ), #185, .F. ) ;
#285 = CARTESIAN_POINT ( 'NONE',  ( 1.543266952486491709E-14, 0.6499999999999994671, 3.200000000000000178 ) ) ;
#286 = CARTESIAN_POINT ( 'NONE',  ( 1.117274028429802674E-14, 0.6499999999999994671, 3.200000000000000178 ) ) ;
#287 = MECHANICAL_DESIGN_GEOMETRIC_PRESENTATION_REPRESENTATION (  '', ( #64 ), #260 ) ;
#288 = SURFACE_STYLE_USAGE ( .BOTH. , #74 ) ;
#289 = EDGE_CURVE ( 'NONE', #133, #91, #340, .T. ) ;
#290 = VECTOR ( 'NONE', #153, 1000.000000000000000 ) ;
#291 =( NAMED_UNIT ( * ) SI_UNIT ( $, .STERADIAN. ) SOLID_ANGLE_UNIT ( ) );
#292 = ORIENTED_EDGE ( 'NONE', *, *, #114, .T. ) ;
#293 = DIRECTION ( 'NONE',  ( -3.491481338843133355E-15, 1.224646799147353207E-16, -1.000000000000000000 ) ) ;
#294 = VECTOR ( 'NONE', #8, 1000.000000000000114 ) ;
#295 = EDGE_CURVE ( 'NONE', #133, #65, #54, .T. ) ;
#296 = CARTESIAN_POINT ( 'NONE',  ( 1.117274028429802674E-14, 0.6499999999999994671, 3.200000000000000178 ) ) ;
#297 = ORIENTED_EDGE ( 'NONE', *, *, #98, .T. ) ;
#298 = EDGE_LOOP ( 'NONE', ( #183, #28, #62, #339 ) ) ;
#299 = AXIS2_PLACEMENT_3D ( 'NONE', #278, #145, #109 ) ;
#300 = CARTESIAN_POINT ( 'NONE',  ( 0.000000000000000000, 0.000000000000000000, 0.000000000000000000 ) ) ;
#301 = ORIENTED_EDGE ( 'NONE', *, *, #289, .T. ) ;
#302 = CYLINDRICAL_SURFACE ( 'NONE', #314, 1.499999999999995781 ) ;
#303 = EDGE_LOOP ( 'NONE', ( #195, #301, #271, #164 ) ) ;
#304 = CONICAL_SURFACE ( 'NONE', #139, 0.6499999999999999112, 0.3450620389298190704 ) ;
#305 = FILL_AREA_STYLE ('',( #35 ) ) ;
#306 = CARTESIAN_POINT ( 'NONE',  ( 0.6500000000000105693, 0.000000000000000000, 3.199999999999997957 ) ) ;
#307 = EDGE_LOOP ( 'NONE', ( #60, #120, #168, #324 ) ) ;
#308 = LINE ( 'NONE', #217, #25 ) ;
#309 = CARTESIAN_POINT ( 'NONE',  ( 7.571277010887263083E-14, -1.500000000000000222, 37.69999999999998863 ) ) ;
#310 = PRESENTATION_STYLE_ASSIGNMENT (( #288 ) ) ;
#311 = LINE ( 'NONE', #126, #125 ) ;
#312 = AXIS2_PLACEMENT_3D ( 'NONE', #151, #257, #338 ) ;
#313 = SURFACE_STYLE_FILL_AREA ( #334 ) ;
#314 = AXIS2_PLACEMENT_3D ( 'NONE', #300, #63, #167 ) ;
#315 = ORIENTED_EDGE ( 'NONE', *, *, #106, .F. ) ;
#316 = ADVANCED_FACE ( 'NONE', ( #132 ), #304, .T. ) ;
#317 = UNCERTAINTY_MEASURE_WITH_UNIT (LENGTH_MEASURE( 1.000000000000000082E-05 ), #191, 'distance_accuracy_value', 'NONE');
#318 =( GEOMETRIC_REPRESENTATION_CONTEXT ( 3 ) GLOBAL_UNCERTAINTY_ASSIGNED_CONTEXT ( ( #342 ) ) GLOBAL_UNIT_ASSIGNED_CONTEXT ( ( #128, #255, #291 ) ) REPRESENTATION_CONTEXT ( 'NONE', 'WORKASPACE' ) );
#319 = CARTESIAN_POINT ( 'NONE',  ( 1.117274028429802674E-14, -3.918869757271530460E-16, 3.200000000000000178 ) ) ;
#320 = ORIENTED_EDGE ( 'NONE', *, *, #289, .F. ) ;
#321 = EDGE_CURVE ( 'NONE', #234, #87, #199, .T. ) ;
#322 = VERTEX_POINT ( 'NONE', #263 ) ;
#323 = DIRECTION ( 'NONE',  ( -2.382254525458724175E-15, -0.7071067811865451302, -0.7071067811865499042 ) ) ;
#324 = ORIENTED_EDGE ( 'NONE', *, *, #50, .F. ) ;
#325 = DIRECTION ( 'NONE',  ( 3.491481338843133355E-15, -1.224646799147353207E-16, 1.000000000000000000 ) ) ;
#326 = ORIENTED_EDGE ( 'NONE', *, *, #336, .F. ) ;
#327 = FACE_OUTER_BOUND ( 'NONE', #140, .T. ) ;
#328 = CYLINDRICAL_SURFACE ( 'NONE', #299, 1.499999999999995781 ) ;
#329 = LINE ( 'NONE', #226, #179 ) ;
#330 = DIRECTION ( 'NONE',  ( 3.491481338843133355E-15, -0.000000000000000000, 1.000000000000000000 ) ) ;
#331 = CONICAL_SURFACE ( 'NONE', #142, 0.6499999999999999112, 0.3450620389298190704 ) ;
#332 = EDGE_CURVE ( 'NONE', #34, #143, #57, .T. ) ;
#333 = SURFACE_STYLE_USAGE ( .BOTH. , #45 ) ;
#334 = FILL_AREA_STYLE ('',( #75 ) ) ;
#335 = AXIS2_PLACEMENT_3D ( 'NONE', #88, #44, #176 ) ;
#336 = EDGE_CURVE ( 'NONE', #87, #234, #27, .T. ) ;
#337 = UNCERTAINTY_MEASURE_WITH_UNIT (LENGTH_MEASURE( 1.000000000000000082E-05 ), #239, 'distance_accuracy_value', 'NONE');
#338 = DIRECTION ( 'NONE',  ( 0.000000000000000000, 1.000000000000000000, 0.000000000000000000 ) ) ;
#339 = ORIENTED_EDGE ( 'NONE', *, *, #295, .F. ) ;
#340 = LINE ( 'NONE', #26, #202 ) ;
#341 = VECTOR ( 'NONE', #330, 1000.000000000000000 ) ;
#342 = UNCERTAINTY_MEASURE_WITH_UNIT (LENGTH_MEASURE( 1.000000000000000082E-05 ), #128, 'distance_accuracy_value', 'NONE');
#343 = FACE_OUTER_BOUND ( 'NONE', #137, .T. ) ;
ENDSEC;
END-ISO-10303-21;
