ISO-10303-21;
HEADER;
FILE_DESCRIPTION (( 'STEP AP214' ),
    '1' );
FILE_NAME ('41567.step',
    '2024-04-04T09:32:53',
    ( '' ),
    ( '' ),
    'SwSTEP 2.0',
    'SolidWorks 2022',
    '' );
FILE_SCHEMA (( 'AUTOMOTIVE_DESIGN' ));
ENDSEC;

DATA;
#1 = LINE ( 'NONE', #80, #218 ) ;
#2 = ORIENTED_EDGE ( 'NONE', *, *, #270, .T. ) ;
#3 = ORIENTED_EDGE ( 'NONE', *, *, #34, .F. ) ;
#4 = VERTEX_POINT ( 'NONE', #116 ) ;
#5 = DIRECTION ( 'NONE',  ( 3.491481338843133355E-15, -0.000000000000000000, 1.000000000000000000 ) ) ;
#6 = EDGE_LOOP ( 'NONE', ( #189, #319, #295, #82 ) ) ;
#7 = ADVANCED_FACE ( 'NONE', ( #223 ), #285, .T. ) ;
#8 = CARTESIAN_POINT ( 'NONE',  ( 0.6499999999999999112, 0.000000000000000000, -2.269462870248036287E-15 ) ) ;
#9 = ORIENTED_EDGE ( 'NONE', *, *, #34, .T. ) ;
#10 = AXIS2_PLACEMENT_3D ( 'NONE', #250, #328, #327 ) ;
#11 = LINE ( 'NONE', #64, #73 ) ;
#12 = APPLICATION_CONTEXT ( 'automotive_design' ) ;
#13 = AXIS2_PLACEMENT_3D ( 'NONE', #91, #90, #251 ) ;
#14 = PRESENTATION_LAYER_ASSIGNMENT (  '', '', ( #17 ) ) ;
#15 = CARTESIAN_POINT ( 'NONE',  ( 9.776147748760773395E-15, -0.6500000000000001332, 2.799999999999999822 ) ) ;
#16 = LINE ( 'NONE', #15, #209 ) ;
#17 = STYLED_ITEM ( 'NONE', ( #78 ), #86 ) ;
#18 = VERTEX_POINT ( 'NONE', #162 ) ;
#19 = UNCERTAINTY_MEASURE_WITH_UNIT (LENGTH_MEASURE( 1.000000000000000082E-05 ), #332, 'distance_accuracy_value', 'NONE');
#20 = PRESENTATION_STYLE_ASSIGNMENT (( #257 ) ) ;
#21 = CARTESIAN_POINT ( 'NONE',  ( 9.855749790705350610E-15, 0.6499999999999994671, 2.799999999999999822 ) ) ;
#22 = SURFACE_STYLE_USAGE ( .BOTH. , #291 ) ;
#23 = COLOUR_RGB ( '',0.8980392156862745390, 0.9176470588235293713, 0.9294117647058823817 ) ;
#24 = DIRECTION ( 'NONE',  ( 0.000000000000000000, 1.000000000000000000, 0.000000000000000000 ) ) ;
#25 = DIRECTION ( 'NONE',  ( 1.000000000000000000, 0.000000000000000000, -3.336006684570785665E-15 ) ) ;
#26 = VERTEX_POINT ( 'NONE', #266 ) ;
#27 = PRODUCT_RELATED_PRODUCT_CATEGORY ( 'part', '', ( #114 ) ) ;
#28 =( NAMED_UNIT ( * ) SI_UNIT ( $, .STERADIAN. ) SOLID_ANGLE_UNIT ( ) );
#29 = EDGE_LOOP ( 'NONE', ( #89, #2, #187, #60 ) ) ;
#30 = AXIS2_PLACEMENT_3D ( 'NONE', #150, #258, #125 ) ;
#31 = ORIENTED_EDGE ( 'NONE', *, *, #149, .F. ) ;
#32 = EDGE_LOOP ( 'NONE', ( #63, #166 ) ) ;
#33 = ADVANCED_FACE ( 'NONE', ( #194 ), #234, .T. ) ;
#34 = EDGE_CURVE ( 'NONE', #18, #26, #136, .T. ) ;
#35 = CARTESIAN_POINT ( 'NONE',  ( 6.413747168845419518E-31, 1.499999999999995781, 1.836970198721024511E-16 ) ) ;
#36 = ORIENTED_EDGE ( 'NONE', *, *, #128, .T. ) ;
#37 =( NAMED_UNIT ( * ) PLANE_ANGLE_UNIT ( ) SI_UNIT ( $, .RADIAN. ) );
#38 = ORIENTED_EDGE ( 'NONE', *, *, #153, .F. ) ;
#39 = AXIS2_PLACEMENT_3D ( 'NONE', #225, #277, #113 ) ;
#40 = CARTESIAN_POINT ( 'NONE',  ( 9.776147748760773395E-15, 0.6499999999999994671, 2.799999999999999822 ) ) ;
#41 = FACE_OUTER_BOUND ( 'NONE', #213, .T. ) ;
#42 = CARTESIAN_POINT ( 'NONE',  ( 9.776147748760773395E-15, 0.6499999999999994671, 2.799999999999999822 ) ) ;
#43 = SURFACE_STYLE_FILL_AREA ( #261 ) ;
#44 = DIRECTION ( 'NONE',  ( 3.491481338843133355E-15, -0.000000000000000000, 1.000000000000000000 ) ) ;
#45 = CIRCLE ( 'NONE', #281, 0.6499999999999999112 ) ;
#46 = DIRECTION ( 'NONE',  ( -3.491481338843133355E-15, 1.224646799147353207E-16, -1.000000000000000000 ) ) ;
#47 = ADVANCED_FACE ( 'NONE', ( #293 ), #129, .T. ) ;
#48 = DIRECTION ( 'NONE',  ( -3.491481338843133355E-15, 1.224646799147356658E-16, -1.000000000000000000 ) ) ;
#49 = SURFACE_STYLE_FILL_AREA ( #289 ) ;
#50 = CARTESIAN_POINT ( 'NONE',  ( 0.000000000000000000, 0.000000000000000000, 0.000000000000000000 ) ) ;
#51 = STYLED_ITEM ( 'NONE', ( #343 ), #236 ) ;
#52 = EDGE_LOOP ( 'NONE', ( #140, #165, #320, #31 ) ) ;
#53 = DIRECTION ( 'NONE',  ( 1.000000000000000000, 0.000000000000000000, -3.336006684570784482E-15 ) ) ;
#54 = VERTEX_POINT ( 'NONE', #104 ) ;
#55 = ADVANCED_FACE ( 'NONE', ( #342 ), #101, .T. ) ;
#56 = ORIENTED_EDGE ( 'NONE', *, *, #154, .F. ) ;
#57 = ORIENTED_EDGE ( 'NONE', *, *, #336, .F. ) ;
#58 = CARTESIAN_POINT ( 'NONE',  ( 9.776147748760773395E-15, -3.429011037612588783E-16, 2.799999999999999822 ) ) ;
#59 = AXIS2_PLACEMENT_3D ( 'NONE', #215, #48, #24 ) ;
#60 = ORIENTED_EDGE ( 'NONE', *, *, #119, .F. ) ;
#61 = PRODUCT_DEFINITION_SHAPE ( 'NONE', 'NONE',  #216 ) ;
#62 = CARTESIAN_POINT ( 'NONE',  ( 3.206873584422718626E-32, 0.6499999999999999112, 9.184850993605147205E-18 ) ) ;
#63 = ORIENTED_EDGE ( 'NONE', *, *, #192, .T. ) ;
#64 = CARTESIAN_POINT ( 'NONE',  ( 1.318125434942581860E-13, -1.500000000000000222, 37.69999999999998863 ) ) ;
#65 = DIRECTION ( 'NONE',  ( -1.000000000000000000, 0.000000000000000000, 3.491481338843133355E-15 ) ) ;
#66 = ADVANCED_FACE ( 'NONE', ( #102 ), #182, .T. ) ;
#67 = CARTESIAN_POINT ( 'NONE',  ( 0.000000000000000000, 0.000000000000000000, 0.000000000000000000 ) ) ;
#68 = ADVANCED_FACE ( 'NONE', ( #314 ), #269, .T. ) ;
#69 =( GEOMETRIC_REPRESENTATION_CONTEXT ( 3 ) GLOBAL_UNCERTAINTY_ASSIGNED_CONTEXT ( ( #19 ) ) GLOBAL_UNIT_ASSIGNED_CONTEXT ( ( #332, #152, #180 ) ) REPRESENTATION_CONTEXT ( 'NONE', 'WORKASPACE' ) );
#70 = AXIS2_PLACEMENT_3D ( 'NONE', #96, #5, #142 ) ;
#71 = DIRECTION ( 'NONE',  ( 3.491481338843133355E-15, -1.224646799147353207E-16, 1.000000000000000000 ) ) ;
#72 = DIRECTION ( 'NONE',  ( 3.285674118869262210E-15, -0.3382550599108819500, 0.9410544694355824635 ) ) ;
#73 = VECTOR ( 'NONE', #200, 1000.000000000000114 ) ;
#74 = EDGE_CURVE ( 'NONE', #298, #18, #1, .T. ) ;
#75 = CIRCLE ( 'NONE', #167, 1.499999999999995781 ) ;
#76 = CARTESIAN_POINT ( 'NONE',  ( 1.326762908760390423E-13, -4.653657836759941941E-15, 38.00000000000000000 ) ) ;
#77 = DIRECTION ( 'NONE',  ( 3.491481338843133355E-15, -0.000000000000000000, 1.000000000000000000 ) ) ;
#78 = PRESENTATION_STYLE_ASSIGNMENT (( #22 ) ) ;
#79 = ORIENTED_EDGE ( 'NONE', *, *, #119, .T. ) ;
#80 = CARTESIAN_POINT ( 'NONE',  ( 0.6500000000000093481, 0.000000000000000000, 2.799999999999997602 ) ) ;
#81 = ORIENTED_EDGE ( 'NONE', *, *, #288, .T. ) ;
#82 = ORIENTED_EDGE ( 'NONE', *, *, #336, .T. ) ;
#83 = ORIENTED_EDGE ( 'NONE', *, *, #193, .F. ) ;
#84 = LINE ( 'NONE', #35, #323 ) ;
#85 = DIRECTION ( 'NONE',  ( 0.000000000000000000, -1.000000000000000000, 0.000000000000000000 ) ) ;
#86 = MANIFOLD_SOLID_BREP ( 'Corps-Déplacer/Copier1[1]', #106 ) ;
#87 = DIRECTION ( 'NONE',  ( 0.000000000000000000, 1.000000000000000000, 0.000000000000000000 ) ) ;
#88 = CIRCLE ( 'NONE', #122, 1.199999999999989075 ) ;
#89 = ORIENTED_EDGE ( 'NONE', *, *, #255, .F. ) ;
#90 = DIRECTION ( 'NONE',  ( -3.491481338843133355E-15, 1.224646799147353207E-16, -1.000000000000000000 ) ) ;
#91 = CARTESIAN_POINT ( 'NONE',  ( 1.803270716807786786E-14, -6.325022238459192904E-16, 5.164772604528031330 ) ) ;
#92 = ADVANCED_FACE ( 'NONE', ( #313 ), #318, .T. ) ;
#93 = ADVANCED_FACE ( 'NONE', ( #41 ), #307, .T. ) ;
#94 = LINE ( 'NONE', #21, #181 ) ;
#95 = AXIS2_PLACEMENT_3D ( 'NONE', #58, #110, #229 ) ;
#96 = CARTESIAN_POINT ( 'NONE',  ( 0.000000000000000000, 0.000000000000000000, 0.000000000000000000 ) ) ;
#97 = LINE ( 'NONE', #202, #306 ) ;
#98 = UNCERTAINTY_MEASURE_WITH_UNIT (LENGTH_MEASURE( 1.000000000000000082E-05 ), #174, 'distance_accuracy_value', 'NONE');
#99 = DIRECTION ( 'NONE',  ( 4.275831445896958607E-31, 1.000000000000000000, 1.224646799147353207E-16 ) ) ;
#100 =( NAMED_UNIT ( * ) SI_UNIT ( $, .STERADIAN. ) SOLID_ANGLE_UNIT ( ) );
#101 = CONICAL_SURFACE ( 'NONE', #151, 1.499999999999995781, 0.7853981633974450594 ) ;
#102 = FACE_OUTER_BOUND ( 'NONE', #52, .T. ) ;
#103 =( NAMED_UNIT ( * ) PLANE_ANGLE_UNIT ( ) SI_UNIT ( $, .RADIAN. ) );
#104 = CARTESIAN_POINT ( 'NONE',  ( 7.501447384110407989E-14, -1.499999999999996669, 5.164772604528031330 ) ) ;
#105 = DIRECTION ( 'NONE',  ( 3.491481338843133355E-15, -1.224646799147353207E-16, 1.000000000000000000 ) ) ;
#106 = CLOSED_SHELL ( 'NONE', ( #33, #7, #93, #109, #92, #330, #68, #55 ) ) ;
#107 = FILL_AREA_STYLE_COLOUR ( '', #23 ) ;
#108 = ORIENTED_EDGE ( 'NONE', *, *, #310, .F. ) ;
#109 = ADVANCED_FACE ( 'NONE', ( #233 ), #305, .T. ) ;
#110 = DIRECTION ( 'NONE',  ( -3.491481338843133355E-15, 1.224646799147353207E-16, -1.000000000000000000 ) ) ;
#111 = ORIENTED_EDGE ( 'NONE', *, *, #161, .T. ) ;
#112 = CIRCLE ( 'NONE', #70, 0.6499999999999999112 ) ;
#113 = DIRECTION ( 'NONE',  ( 0.000000000000000000, 1.000000000000000000, 0.000000000000000000 ) ) ;
#114 = PRODUCT ( '41567', '41567', '', ( #183 ) ) ;
#115 = AXIS2_PLACEMENT_3D ( 'NONE', #173, #171, #87 ) ;
#116 = CARTESIAN_POINT ( 'NONE',  ( 7.483077682123198979E-14, 1.499999999999991118, 37.69999999999998863 ) ) ;
#117 = PLANE ( 'NONE',  #120 ) ;
#118 = AXIS2_PLACEMENT_3D ( 'NONE', #264, #105, #85 ) ;
#119 = EDGE_CURVE ( 'NONE', #297, #4, #147, .T. ) ;
#120 = AXIS2_PLACEMENT_3D ( 'NONE', #62, #300, #144 ) ;
#121 = EDGE_CURVE ( 'NONE', #197, #298, #45, .T. ) ;
#122 = AXIS2_PLACEMENT_3D ( 'NONE', #127, #71, #282 ) ;
#123 = DIRECTION ( 'NONE',  ( 1.000000000000000000, 0.000000000000000000, -3.491481338843133355E-15 ) ) ;
#124 = CIRCLE ( 'NONE', #13, 1.499999999999996003 ) ;
#125 = DIRECTION ( 'NONE',  ( 1.000000000000000000, 0.000000000000000000, -3.336006684570785665E-15 ) ) ;
#126 = COLOUR_RGB ( '',0.8980392156862745390, 0.9176470588235293713, 0.9294117647058823817 ) ;
#127 = CARTESIAN_POINT ( 'NONE',  ( 1.326762908760390423E-13, -4.653657836759941941E-15, 38.00000000000000000 ) ) ;
#128 = EDGE_CURVE ( 'NONE', #272, #137, #94, .T. ) ;
#129 = CYLINDRICAL_SURFACE ( 'NONE', #326, 0.6499999999999996891 ) ;
#130 = AXIS2_PLACEMENT_3D ( 'NONE', #340, #77, #25 ) ;
#131 =( NAMED_UNIT ( * ) PLANE_ANGLE_UNIT ( ) SI_UNIT ( $, .RADIAN. ) );
#132 = SURFACE_STYLE_FILL_AREA ( #315 ) ;
#133 = APPLICATION_PROTOCOL_DEFINITION ( 'draft international standard', 'automotive_design', 1998, #199 ) ;
#134 = EDGE_LOOP ( 'NONE', ( #135, #220 ) ) ;
#135 = ORIENTED_EDGE ( 'NONE', *, *, #231, .F. ) ;
#136 = CIRCLE ( 'NONE', #130, 0.6499999999999994671 ) ;
#137 = VERTEX_POINT ( 'NONE', #308 ) ;
#138 = ORIENTED_EDGE ( 'NONE', *, *, #153, .T. ) ;
#139 = CARTESIAN_POINT ( 'NONE',  ( 7.501447384110401678E-14, -1.500000000000000222, 37.69999999999998863 ) ) ;
#140 = ORIENTED_EDGE ( 'NONE', *, *, #221, .F. ) ;
#141 = EDGE_LOOP ( 'NONE', ( #248, #246, #79, #38 ) ) ;
#142 = DIRECTION ( 'NONE',  ( 1.000000000000000000, 0.000000000000000000, -3.491481338843133355E-15 ) ) ;
#143 = VERTEX_POINT ( 'NONE', #259 ) ;
#144 = DIRECTION ( 'NONE',  ( 1.000000000000000000, 0.000000000000000000, -3.491481338843133355E-15 ) ) ;
#145 = DIRECTION ( 'NONE',  ( -3.491481338843133355E-15, 1.224646799147356658E-16, -1.000000000000000000 ) ) ;
#146 = AXIS2_PLACEMENT_3D ( 'NONE', #184, #265, #158 ) ;
#147 = LINE ( 'NONE', #179, #256 ) ;
#148 = LINE ( 'NONE', #232, #230 ) ;
#149 = EDGE_CURVE ( 'NONE', #26, #18, #299, .T. ) ;
#150 = CARTESIAN_POINT ( 'NONE',  ( 9.776147748760773395E-15, 0.000000000000000000, 2.799999999999999822 ) ) ;
#151 = AXIS2_PLACEMENT_3D ( 'NONE', #316, #238, #160 ) ;
#152 =( NAMED_UNIT ( * ) PLANE_ANGLE_UNIT ( ) SI_UNIT ( $, .RADIAN. ) );
#153 = EDGE_CURVE ( 'NONE', #273, #4, #195, .T. ) ;
#154 = EDGE_CURVE ( 'NONE', #273, #54, #148, .T. ) ;
#155 = PRODUCT_DEFINITION_CONTEXT ( 'detailed design', #199, 'design' ) ;
#156 = DIRECTION ( 'NONE',  ( 3.491481338843133355E-15, -0.000000000000000000, 1.000000000000000000 ) ) ;
#157 = MECHANICAL_DESIGN_GEOMETRIC_PRESENTATION_REPRESENTATION (  '', ( #239 ), #69 ) ;
#158 = DIRECTION ( 'NONE',  ( 0.000000000000000000, -1.000000000000000000, 0.000000000000000000 ) ) ;
#159 = ORIENTED_EDGE ( 'NONE', *, *, #154, .T. ) ;
#160 = DIRECTION ( 'NONE',  ( 0.000000000000000000, 1.000000000000000000, 0.000000000000000000 ) ) ;
#161 = EDGE_CURVE ( 'NONE', #4, #273, #75, .T. ) ;
#162 = CARTESIAN_POINT ( 'NONE',  ( 0.6500000000000092371, 0.000000000000000000, 2.799999999999997602 ) ) ;
#163 = AXIS2_PLACEMENT_3D ( 'NONE', #50, #164, #208 ) ;
#164 = DIRECTION ( 'NONE',  ( 0.000000000000000000, 0.000000000000000000, 1.000000000000000000 ) ) ;
#165 = ORIENTED_EDGE ( 'NONE', *, *, #121, .T. ) ;
#166 = ORIENTED_EDGE ( 'NONE', *, *, #255, .T. ) ;
#167 = AXIS2_PLACEMENT_3D ( 'NONE', #279, #145, #284 ) ;
#168 = DIRECTION ( 'NONE',  ( -3.491481338843133355E-15, 0.000000000000000000, -1.000000000000000000 ) ) ;
#169 = ORIENTED_EDGE ( 'NONE', *, *, #288, .F. ) ;
#170 = ORIENTED_EDGE ( 'NONE', *, *, #231, .T. ) ;
#171 = DIRECTION ( 'NONE',  ( -3.491481338843133355E-15, 1.224646799147353207E-16, -1.000000000000000000 ) ) ;
#172 = ORIENTED_EDGE ( 'NONE', *, *, #74, .F. ) ;
#173 = CARTESIAN_POINT ( 'NONE',  ( 9.776147748760773395E-15, -3.429011037612588783E-16, 2.799999999999999822 ) ) ;
#174 =( LENGTH_UNIT ( ) NAMED_UNIT ( * ) SI_UNIT ( .MILLI., .METRE. ) );
#175 = DIRECTION ( 'NONE',  ( 3.327098416510788398E-15, 0.3382550599108817835, 0.9410544694355825746 ) ) ;
#176 = AXIS2_PLACEMENT_3D ( 'NONE', #196, #301, #228 ) ;
#177 = DIRECTION ( 'NONE',  ( -3.491481338843133355E-15, 1.224646799147356658E-16, -1.000000000000000000 ) ) ;
#178 = FILL_AREA_STYLE_COLOUR ( '', #339 ) ;
#179 = CARTESIAN_POINT ( 'NONE',  ( 1.316288464743860959E-13, 1.499999999999991118, 37.69999999999998863 ) ) ;
#180 =( NAMED_UNIT ( * ) SI_UNIT ( $, .STERADIAN. ) SOLID_ANGLE_UNIT ( ) );
#181 = VECTOR ( 'NONE', #175, 999.9999999999998863 ) ;
#182 = CYLINDRICAL_SURFACE ( 'NONE', #260, 0.6499999999999996891 ) ;
#183 = PRODUCT_CONTEXT ( 'NONE', #12, 'mechanical' ) ;
#184 = CARTESIAN_POINT ( 'NONE',  ( 9.776147748760773395E-15, -3.429011037612588783E-16, 2.799999999999999822 ) ) ;
#185 =( GEOMETRIC_REPRESENTATION_CONTEXT ( 3 ) GLOBAL_UNCERTAINTY_ASSIGNED_CONTEXT ( ( #335 ) ) GLOBAL_UNIT_ASSIGNED_CONTEXT ( ( #341, #103, #219 ) ) REPRESENTATION_CONTEXT ( 'NONE', 'WORKASPACE' ) );
#186 = FILL_AREA_STYLE_COLOUR ( '', #126 ) ;
#187 = ORIENTED_EDGE ( 'NONE', *, *, #161, .F. ) ;
#188 =( LENGTH_UNIT ( ) NAMED_UNIT ( * ) SI_UNIT ( .MILLI., .METRE. ) );
#189 = ORIENTED_EDGE ( 'NONE', *, *, #128, .F. ) ;
#190 = ORIENTED_EDGE ( 'NONE', *, *, #252, .F. ) ;
#191 = FACE_OUTER_BOUND ( 'NONE', #134, .T. ) ;
#192 = EDGE_CURVE ( 'NONE', #297, #294, #88, .T. ) ;
#193 = EDGE_CURVE ( 'NONE', #143, #54, #16, .T. ) ;
#194 = FACE_OUTER_BOUND ( 'NONE', #29, .T. ) ;
#195 = CIRCLE ( 'NONE', #276, 1.499999999999995781 ) ;
#196 = CARTESIAN_POINT ( 'NONE',  ( 0.000000000000000000, 0.000000000000000000, 0.000000000000000000 ) ) ;
#197 = VERTEX_POINT ( 'NONE', #286 ) ;
#198 = FACE_OUTER_BOUND ( 'NONE', #217, .T. ) ;
#199 = APPLICATION_CONTEXT ( 'automotive_design' ) ;
#200 = DIRECTION ( 'NONE',  ( -2.382254525458724175E-15, -0.7071067811865451302, -0.7071067811865499042 ) ) ;
#201 =( GEOMETRIC_REPRESENTATION_CONTEXT ( 3 ) GLOBAL_UNCERTAINTY_ASSIGNED_CONTEXT ( ( #237 ) ) GLOBAL_UNIT_ASSIGNED_CONTEXT ( ( #188, #131, #100 ) ) REPRESENTATION_CONTEXT ( 'NONE', 'WORKASPACE' ) );
#202 = CARTESIAN_POINT ( 'NONE',  ( -0.6499999999999899192, 7.960204194457791779E-17, 2.800000000000002043 ) ) ;
#203 = MANIFOLD_SOLID_BREP ( 'Corps-Déplacer/Copier1[2]', #312 ) ;
#204 = DIRECTION ( 'NONE',  ( -3.491481338843133355E-15, 1.224646799147353207E-16, -1.000000000000000000 ) ) ;
#205 = SURFACE_SIDE_STYLE ('',( #43 ) ) ;
#206 = DIRECTION ( 'NONE',  ( -4.275831445896958607E-31, -1.000000000000000000, -1.224646799147353207E-16 ) ) ;
#207 = CARTESIAN_POINT ( 'NONE',  ( 9.776147748760773395E-15, 0.000000000000000000, 2.799999999999999822 ) ) ;
#208 = DIRECTION ( 'NONE',  ( 1.000000000000000000, 0.000000000000000000, 0.000000000000000000 ) ) ;
#209 = VECTOR ( 'NONE', #72, 1000.000000000000000 ) ;
#210 = DIRECTION ( 'NONE',  ( 3.491481338843133355E-15, -0.000000000000000000, 1.000000000000000000 ) ) ;
#211 = DIRECTION ( 'NONE',  ( 1.000000000000000000, 0.000000000000000000, -3.336006684570784482E-15 ) ) ;
#212 = APPLICATION_PROTOCOL_DEFINITION ( 'draft international standard', 'automotive_design', 1998, #12 ) ;
#213 = EDGE_LOOP ( 'NONE', ( #111, #159, #190, #169 ) ) ;
#214 = CIRCLE ( 'NONE', #115, 0.6499999999999998002 ) ;
#215 = CARTESIAN_POINT ( 'NONE',  ( 1.316288464743860959E-13, -4.616918432785520292E-15, 37.69999999999998863 ) ) ;
#216 = PRODUCT_DEFINITION ( 'UNKNOWN', '', #249, #155 ) ;
#217 = EDGE_LOOP ( 'NONE', ( #9, #325 ) ) ;
#218 = VECTOR ( 'NONE', #156, 1000.000000000000000 ) ;
#219 =( NAMED_UNIT ( * ) SI_UNIT ( $, .STERADIAN. ) SOLID_ANGLE_UNIT ( ) );
#220 = ORIENTED_EDGE ( 'NONE', *, *, #121, .F. ) ;
#221 = EDGE_CURVE ( 'NONE', #197, #26, #97, .T. ) ;
#222 = PLANE ( 'NONE',  #274 ) ;
#223 = FACE_OUTER_BOUND ( 'NONE', #322, .T. ) ;
#224 = CIRCLE ( 'NONE', #95, 0.6499999999999998002 ) ;
#225 = CARTESIAN_POINT ( 'NONE',  ( 1.803270716807786786E-14, -6.325022238459192904E-16, 5.164772604528031330 ) ) ;
#226 = ORIENTED_EDGE ( 'NONE', *, *, #221, .T. ) ;
#227 = AXIS2_PLACEMENT_3D ( 'NONE', #42, #262, #303 ) ;
#228 = DIRECTION ( 'NONE',  ( 4.275831445896958607E-31, 1.000000000000000000, 1.224646799147353207E-16 ) ) ;
#229 = DIRECTION ( 'NONE',  ( 0.000000000000000000, 1.000000000000000000, 0.000000000000000000 ) ) ;
#230 = VECTOR ( 'NONE', #204, 1000.000000000000000 ) ;
#231 = EDGE_CURVE ( 'NONE', #298, #197, #112, .T. ) ;
#232 = CARTESIAN_POINT ( 'NONE',  ( 1.836970198721018348E-16, -1.499999999999995781, -1.836970198721030920E-16 ) ) ;
#233 = FACE_OUTER_BOUND ( 'NONE', #245, .T. ) ;
#234 = CONICAL_SURFACE ( 'NONE', #59, 1.499999999999995781, 0.7853981633974450594 ) ;
#235 = CARTESIAN_POINT ( 'NONE',  ( 0.000000000000000000, 0.000000000000000000, 0.000000000000000000 ) ) ;
#236 = ADVANCED_BREP_SHAPE_REPRESENTATION ( '41567', ( #86, #203, #163 ), #309 ) ;
#237 = UNCERTAINTY_MEASURE_WITH_UNIT (LENGTH_MEASURE( 1.000000000000000082E-05 ), #188, 'distance_accuracy_value', 'NONE');
#238 = DIRECTION ( 'NONE',  ( -3.491481338843133355E-15, 1.224646799147356658E-16, -1.000000000000000000 ) ) ;
#239 = STYLED_ITEM ( 'NONE', ( #20 ), #203 ) ;
#240 = DIRECTION ( 'NONE',  ( 3.491481338843133355E-15, -0.000000000000000000, 1.000000000000000000 ) ) ;
#241 = EDGE_LOOP ( 'NONE', ( #170, #226, #3, #172 ) ) ;
#242 = SURFACE_STYLE_USAGE ( .BOTH. , #263 ) ;
#243 = ORIENTED_EDGE ( 'NONE', *, *, #252, .T. ) ;
#244 = AXIS2_PLACEMENT_3D ( 'NONE', #235, #46, #99 ) ;
#245 = EDGE_LOOP ( 'NONE', ( #292, #317 ) ) ;
#246 = ORIENTED_EDGE ( 'NONE', *, *, #192, .F. ) ;
#247 = DIRECTION ( 'NONE',  ( -3.491481338843133355E-15, 1.224646799147353207E-16, -1.000000000000000000 ) ) ;
#248 = ORIENTED_EDGE ( 'NONE', *, *, #270, .F. ) ;
#249 = PRODUCT_DEFINITION_FORMATION_WITH_SPECIFIED_SOURCE ( 'ANY', '', #114, .NOT_KNOWN. ) ;
#250 = CARTESIAN_POINT ( 'NONE',  ( 1.326762908760390423E-13, -4.653657836759941941E-15, 38.00000000000000000 ) ) ;
#251 = DIRECTION ( 'NONE',  ( 0.000000000000000000, 1.000000000000000000, 0.000000000000000000 ) ) ;
#252 = EDGE_CURVE ( 'NONE', #137, #54, #304, .T. ) ;
#253 = PRESENTATION_LAYER_ASSIGNMENT (  '', '', ( #239 ) ) ;
#254 = EDGE_CURVE ( 'NONE', #143, #272, #224, .T. ) ;
#255 = EDGE_CURVE ( 'NONE', #294, #297, #290, .T. ) ;
#256 = VECTOR ( 'NONE', #334, 1000.000000000000000 ) ;
#257 = SURFACE_STYLE_USAGE ( .BOTH. , #205 ) ;
#258 = DIRECTION ( 'NONE',  ( 3.491481338843133355E-15, -0.000000000000000000, 1.000000000000000000 ) ) ;
#259 = CARTESIAN_POINT ( 'NONE',  ( 1.390442745841931905E-14, -0.6500000000000001332, 2.799999999999999822 ) ) ;
#260 = AXIS2_PLACEMENT_3D ( 'NONE', #287, #210, #211 ) ;
#261 = FILL_AREA_STYLE ('',( #178 ) ) ;
#262 = DIRECTION ( 'NONE',  ( -3.491481338843133355E-15, 1.224646799147353207E-16, -1.000000000000000000 ) ) ;
#263 = SURFACE_SIDE_STYLE ('',( #132 ) ) ;
#264 = CARTESIAN_POINT ( 'NONE',  ( 9.776147748760773395E-15, -3.429011037612588783E-16, 2.799999999999999822 ) ) ;
#265 = DIRECTION ( 'NONE',  ( 3.491481338843133355E-15, -1.224646799147353207E-16, 1.000000000000000000 ) ) ;
#266 = CARTESIAN_POINT ( 'NONE',  ( -0.6499999999999896971, 7.960204194457790546E-17, 2.800000000000002043 ) ) ;
#267 = SHAPE_DEFINITION_REPRESENTATION ( #61, #236 ) ;
#268 = EDGE_LOOP ( 'NONE', ( #56, #138, #81, #57 ) ) ;
#269 = CONICAL_SURFACE ( 'NONE', #146, 0.6499999999999998002, 0.3450620389298189039 ) ;
#270 = EDGE_CURVE ( 'NONE', #294, #273, #11, .T. ) ;
#271 = FACE_OUTER_BOUND ( 'NONE', #268, .T. ) ;
#272 = VERTEX_POINT ( 'NONE', #321 ) ;
#273 = VERTEX_POINT ( 'NONE', #139 ) ;
#274 = AXIS2_PLACEMENT_3D ( 'NONE', #40, #168, #65 ) ;
#275 = CYLINDRICAL_SURFACE ( 'NONE', #176, 1.499999999999995781 ) ;
#276 = AXIS2_PLACEMENT_3D ( 'NONE', #283, #177, #337 ) ;
#277 = DIRECTION ( 'NONE',  ( -3.491481338843133355E-15, 1.224646799147353207E-16, -1.000000000000000000 ) ) ;
#278 = ADVANCED_FACE ( 'NONE', ( #191 ), #117, .F. ) ;
#279 = CARTESIAN_POINT ( 'NONE',  ( 1.316288464743860959E-13, -4.616918432785520292E-15, 37.69999999999998863 ) ) ;
#280 = PRESENTATION_LAYER_ASSIGNMENT (  '', '', ( #51 ) ) ;
#281 = AXIS2_PLACEMENT_3D ( 'NONE', #67, #44, #123 ) ;
#282 = DIRECTION ( 'NONE',  ( 0.000000000000000000, -1.000000000000000000, 0.000000000000000000 ) ) ;
#283 = CARTESIAN_POINT ( 'NONE',  ( 1.316288464743860959E-13, -4.616918432785520292E-15, 37.69999999999998863 ) ) ;
#284 = DIRECTION ( 'NONE',  ( 3.819167204710539130E-14, -1.000000000000000000, 0.000000000000000000 ) ) ;
#285 = CONICAL_SURFACE ( 'NONE', #118, 0.6499999999999998002, 0.3450620389298189039 ) ;
#286 = CARTESIAN_POINT ( 'NONE',  ( -0.6499999999999999112, 7.960204194457853409E-17, 2.269462870248036287E-15 ) ) ;
#287 = CARTESIAN_POINT ( 'NONE',  ( 9.776147748760773395E-15, 0.000000000000000000, 2.799999999999999822 ) ) ;
#288 = EDGE_CURVE ( 'NONE', #4, #137, #84, .T. ) ;
#289 = FILL_AREA_STYLE ('',( #186 ) ) ;
#290 = CIRCLE ( 'NONE', #10, 1.199999999999989075 ) ;
#291 = SURFACE_SIDE_STYLE ('',( #49 ) ) ;
#292 = ORIENTED_EDGE ( 'NONE', *, *, #254, .T. ) ;
#293 = FACE_OUTER_BOUND ( 'NONE', #241, .T. ) ;
#294 = VERTEX_POINT ( 'NONE', #296 ) ;
#295 = ORIENTED_EDGE ( 'NONE', *, *, #193, .T. ) ;
#296 = CARTESIAN_POINT ( 'NONE',  ( 1.323178959930974653E-13, -1.199999999999993516, 38.00000000000000000 ) ) ;
#297 = VERTEX_POINT ( 'NONE', #324 ) ;
#298 = VERTEX_POINT ( 'NONE', #8 ) ;
#299 = CIRCLE ( 'NONE', #30, 0.6499999999999994671 ) ;
#300 = DIRECTION ( 'NONE',  ( 3.491481338843133355E-15, -0.000000000000000000, 1.000000000000000000 ) ) ;
#301 = DIRECTION ( 'NONE',  ( -3.491481338843133355E-15, 1.224646799147353207E-16, -1.000000000000000000 ) ) ;
#302 = AXIS2_PLACEMENT_3D ( 'NONE', #76, #333, #206 ) ;
#303 = DIRECTION ( 'NONE',  ( 4.275831445896958607E-31, 1.000000000000000000, 1.224646799147353207E-16 ) ) ;
#304 = CIRCLE ( 'NONE', #39, 1.499999999999996003 ) ;
#305 = PLANE ( 'NONE',  #227 ) ;
#306 = VECTOR ( 'NONE', #331, 1000.000000000000000 ) ;
#307 = CYLINDRICAL_SURFACE ( 'NONE', #244, 1.499999999999995781 ) ;
#308 = CARTESIAN_POINT ( 'NONE',  ( 1.803270716807786786E-14, 1.499999999999995337, 5.164772604528031330 ) ) ;
#309 =( GEOMETRIC_REPRESENTATION_CONTEXT ( 3 ) GLOBAL_UNCERTAINTY_ASSIGNED_CONTEXT ( ( #98 ) ) GLOBAL_UNIT_ASSIGNED_CONTEXT ( ( #174, #37, #28 ) ) REPRESENTATION_CONTEXT ( 'NONE', 'WORKASPACE' ) );
#310 = EDGE_CURVE ( 'NONE', #272, #143, #214, .T. ) ;
#311 = ADVANCED_FACE ( 'NONE', ( #198 ), #222, .F. ) ;
#312 = CLOSED_SHELL ( 'NONE', ( #47, #66, #311, #278 ) ) ;
#313 = FACE_OUTER_BOUND ( 'NONE', #32, .T. ) ;
#314 = FACE_OUTER_BOUND ( 'NONE', #6, .T. ) ;
#315 = FILL_AREA_STYLE ('',( #107 ) ) ;
#316 = CARTESIAN_POINT ( 'NONE',  ( 1.316288464743860959E-13, -4.616918432785520292E-15, 37.69999999999998863 ) ) ;
#317 = ORIENTED_EDGE ( 'NONE', *, *, #310, .T. ) ;
#318 = PLANE ( 'NONE',  #302 ) ;
#319 = ORIENTED_EDGE ( 'NONE', *, *, #254, .F. ) ;
#320 = ORIENTED_EDGE ( 'NONE', *, *, #74, .T. ) ;
#321 = CARTESIAN_POINT ( 'NONE',  ( 1.403607698932766059E-14, 0.6499999999999994671, 2.799999999999999822 ) ) ;
#322 = EDGE_LOOP ( 'NONE', ( #108, #36, #243, #83 ) ) ;
#323 = VECTOR ( 'NONE', #247, 1000.000000000000000 ) ;
#324 = CARTESIAN_POINT ( 'NONE',  ( 1.321525686752125943E-13, 1.199999999999984412, 38.00000000000000000 ) ) ;
#325 = ORIENTED_EDGE ( 'NONE', *, *, #149, .T. ) ;
#326 = AXIS2_PLACEMENT_3D ( 'NONE', #207, #240, #53 ) ;
#327 = DIRECTION ( 'NONE',  ( 0.000000000000000000, -1.000000000000000000, 0.000000000000000000 ) ) ;
#328 = DIRECTION ( 'NONE',  ( 3.491481338843133355E-15, -1.224646799147353207E-16, 1.000000000000000000 ) ) ;
#329 = MECHANICAL_DESIGN_GEOMETRIC_PRESENTATION_REPRESENTATION (  '', ( #17 ), #201 ) ;
#330 = ADVANCED_FACE ( 'NONE', ( #271 ), #275, .T. ) ;
#331 = DIRECTION ( 'NONE',  ( 3.491481338843133355E-15, -0.000000000000000000, 1.000000000000000000 ) ) ;
#332 =( LENGTH_UNIT ( ) NAMED_UNIT ( * ) SI_UNIT ( .MILLI., .METRE. ) );
#333 = DIRECTION ( 'NONE',  ( 3.491481338843133355E-15, -1.224646799147353207E-16, 1.000000000000000000 ) ) ;
#334 = DIRECTION ( 'NONE',  ( -2.468850131082272838E-15, 0.7071067811865453523, -0.7071067811865496822 ) ) ;
#335 = UNCERTAINTY_MEASURE_WITH_UNIT (LENGTH_MEASURE( 1.000000000000000082E-05 ), #341, 'distance_accuracy_value', 'NONE');
#336 = EDGE_CURVE ( 'NONE', #54, #137, #124, .T. ) ;
#337 = DIRECTION ( 'NONE',  ( -3.730349362740525976E-14, -1.000000000000000000, 0.000000000000000000 ) ) ;
#338 = MECHANICAL_DESIGN_GEOMETRIC_PRESENTATION_REPRESENTATION (  '', ( #51 ), #185 ) ;
#339 = COLOUR_RGB ( '',0.8980392156862745390, 0.9176470588235293713, 0.9294117647058823817 ) ;
#340 = CARTESIAN_POINT ( 'NONE',  ( 9.776147748760773395E-15, 0.000000000000000000, 2.799999999999999822 ) ) ;
#341 =( LENGTH_UNIT ( ) NAMED_UNIT ( * ) SI_UNIT ( .MILLI., .METRE. ) );
#342 = FACE_OUTER_BOUND ( 'NONE', #141, .T. ) ;
#343 = PRESENTATION_STYLE_ASSIGNMENT (( #242 ) ) ;
ENDSEC;
END-ISO-10303-21;
